  0
SECTION
  2
HEADER
  9
$ACADVER
  1
AC1015
  9
$ACADMAINTVER
 70
     6
  9
$DWGCODEPAGE
  3
ANSI_1252
  9
$INSBASE
 10
0.0
 20
0.0
 30
0.0
  9
$EXTMIN
 10
-182.0
 20
0.0
 30
0.0
  9
$EXTMAX
 10
42.0
 20
25.5
 30
0.0
  9
$LIMMIN
 10
0.0
 20
0.0
  9
$LIMMAX
 10
420.0
 20
297.0
  9
$ORTHOMODE
 70
     0
  9
$REGENMODE
 70
     1
  9
$FILLMODE
 70
     1
  9
$QTEXTMODE
 70
     0
  9
$MIRRTEXT
 70
     1
  9
$LTSCALE
 40
1.0
  9
$ATTMODE
 70
     1
  9
$TEXTSIZE
 40
3.5
  9
$TRACEWID
 40
1.0
  9
$TEXTSTYLE
  7
Standard
  9
$CLAYER
  8
0
  9
$CELTYPE
  6
ByLayer
  9
$CECOLOR
 62
   256
  9
$CELTSCALE
 40
1.0
  9
$DISPSILH
 70
     0
  9
$DIMSCALE
 40
1.0
  9
$DIMASZ
 40
3.302
  9
$DIMEXO
 40
1.0
  9
$DIMDLI
 40
3.75
  9
$DIMRND
 40
0.0
  9
$DIMDLE
 40
0.0
  9
$DIMEXE
 40
1.0
  9
$DIMTP
 40
0.0
  9
$DIMTM
 40
0.0
  9
$DIMTXT
 40
3.5
  9
$DIMCEN
 40
2.5
  9
$DIMTSZ
 40
0.0
  9
$DIMTOL
 70
     0
  9
$DIMLIM
 70
     0
  9
$DIMTIH
 70
     1
  9
$DIMTOH
 70
     1
  9
$DIMSE1
 70
     0
  9
$DIMSE2
 70
     0
  9
$DIMTAD
 70
     1
  9
$DIMZIN
 70
     1
  9
$DIMBLK
  1

  9
$DIMASO
 70
     1
  9
$DIMSHO
 70
     1
  9
$DIMPOST
  1

  9
$DIMAPOST
  1

  9
$DIMALT
 70
     0
  9
$DIMALTD
 70
     3
  9
$DIMALTF
 40
0.0393700787
  9
$DIMLFAC
 40
1.0
  9
$DIMTOFL
 70
     1
  9
$DIMTVP
 40
0.0
  9
$DIMTIX
 70
     0
  9
$DIMSOXD
 70
     0
  9
$DIMSAH
 70
     0
  9
$DIMBLK1
  1

  9
$DIMBLK2
  1

  9
$DIMSTYLE
  2
ISO-25
  9
$DIMCLRD
 70
     0
  9
$DIMCLRE
 70
     0
  9
$DIMCLRT
 70
     0
  9
$DIMTFAC
 40
1.0
  9
$DIMGAP
 40
1.524
  9
$DIMJUST
 70
     0
  9
$DIMSD1
 70
     0
  9
$DIMSD2
 70
     0
  9
$DIMTOLJ
 70
     0
  9
$DIMTZIN
 70
     1
  9
$DIMALTZ
 70
     0
  9
$DIMALTTZ
 70
     0
  9
$DIMUPT
 70
     0
  9
$DIMDEC
 70
     2
  9
$DIMTDEC
 70
     2
  9
$DIMALTU
 70
     2
  9
$DIMALTTD
 70
     3
  9
$DIMTXSTY
  7
Standard
  9
$DIMAUNIT
 70
     0
  9
$DIMADEC
 70
     2
  9
$DIMALTRND
 40
0.0
  9
$DIMAZIN
 70
     0
  9
$DIMDSEP
 70
    44
  9
$DIMATFIT
 70
     3
  9
$DIMFRAC
 70
     0
  9
$DIMLDRBLK
  1

  9
$DIMLUNIT
 70
     2
  9
$DIMLWD
 70
    -2
  9
$DIMLWE
 70
    -2
  9
$DIMTMOVE
 70
     0
  9
$LUNITS
 70
     2
  9
$LUPREC
 70
     2
  9
$SKETCHINC
 40
1.0
  9
$FILLETRAD
 40
10.0
  9
$AUNITS
 70
     0
  9
$AUPREC
 70
     2
  9
$MENU
  1
.
  9
$ELEVATION
 40
0.0
  9
$PELEVATION
 40
0.0
  9
$THICKNESS
 40
0.0
  9
$LIMCHECK
 70
     0
  9
$CHAMFERA
 40
0.0
  9
$CHAMFERB
 40
0.0
  9
$CHAMFERC
 40
0.0
  9
$CHAMFERD
 40
0.0
  9
$SKPOLY
 70
     0
  9
$TDCREATE
 40
2458862.403457326
  9
$TDUCREATE
 40
2458862.403457326
  9
$TDUPDATE
 40
2458862.403478484
  9
$TDUUPDATE
 40
2458862.403478484
  9
$TDINDWG
 40
0.0000000116
  9
$TDUSRTIMER
 40
0.0000000116
  9
$USRTIMER
 70
     1
  9
$ANGBASE
 50
0.0
  9
$ANGDIR
 70
     0
  9
$PDMODE
 70
     0
  9
$PDSIZE
 40
-1.0
  9
$PLINEWID
 40
0.0
  9
$SPLFRAME
 70
     0
  9
$SPLINETYPE
 70
     6
  9
$SPLINESEGS
 70
     8
  9
$HANDSEED
  5
4FC
  9
$SURFTAB1
 70
     6
  9
$SURFTAB2
 70
     6
  9
$SURFTYPE
 70
     6
  9
$SURFU
 70
     6
  9
$SURFV
 70
     6
  9
$UCSBASE
  2

  9
$UCSNAME
  2

  9
$UCSORG
 10
0.0
 20
0.0
 30
0.0
  9
$UCSXDIR
 10
1.0
 20
0.0
 30
0.0
  9
$UCSYDIR
 10
0.0
 20
1.0
 30
0.0
  9
$UCSORTHOREF
  2

  9
$UCSORTHOVIEW
 70
     0
  9
$UCSORGTOP
 10
0.0
 20
0.0
 30
0.0
  9
$UCSORGBOTTOM
 10
0.0
 20
0.0
 30
0.0
  9
$UCSORGLEFT
 10
0.0
 20
0.0
 30
0.0
  9
$UCSORGRIGHT
 10
0.0
 20
0.0
 30
0.0
  9
$UCSORGFRONT
 10
0.0
 20
0.0
 30
0.0
  9
$UCSORGBACK
 10
0.0
 20
0.0
 30
0.0
  9
$PUCSBASE
  2

  9
$PUCSNAME
  2

  9
$PUCSORG
 10
0.0
 20
0.0
 30
0.0
  9
$PUCSXDIR
 10
1.0
 20
0.0
 30
0.0
  9
$PUCSYDIR
 10
0.0
 20
1.0
 30
0.0
  9
$PUCSORTHOREF
  2

  9
$PUCSORTHOVIEW
 70
     0
  9
$PUCSORGTOP
 10
0.0
 20
0.0
 30
0.0
  9
$PUCSORGBOTTOM
 10
0.0
 20
0.0
 30
0.0
  9
$PUCSORGLEFT
 10
0.0
 20
0.0
 30
0.0
  9
$PUCSORGRIGHT
 10
0.0
 20
0.0
 30
0.0
  9
$PUCSORGFRONT
 10
0.0
 20
0.0
 30
0.0
  9
$PUCSORGBACK
 10
0.0
 20
0.0
 30
0.0
  9
$USERI1
 70
     0
  9
$USERI2
 70
     0
  9
$USERI3
 70
     0
  9
$USERI4
 70
     0
  9
$USERI5
 70
     0
  9
$USERR1
 40
0.0
  9
$USERR2
 40
0.0
  9
$USERR3
 40
0.0
  9
$USERR4
 40
0.0
  9
$USERR5
 40
0.0
  9
$WORLDVIEW
 70
     1
  9
$SHADEDGE
 70
     3
  9
$SHADEDIF
 70
    70
  9
$TILEMODE
 70
     1
  9
$MAXACTVP
 70
    64
  9
$PINSBASE
 10
0.0
 20
0.0
 30
0.0
  9
$PLIMCHECK
 70
     0
  9
$PEXTMIN
 10
-182.0
 20
-0.0001498477
 30
0.0
  9
$PEXTMAX
 10
42.0
 20
24.0001498477
 30
0.0
  9
$PLIMMIN
 10
-199.4319066148
 20
-6.5371148283
  9
$PLIMMAX
 10
59.4319066148
 20
176.497904627
  9
$UNITMODE
 70
     0
  9
$VISRETAIN
 70
     1
  9
$PLINEGEN
 70
     0
  9
$PSLTSCALE
 70
     1
  9
$TREEDEPTH
 70
  3020
  9
$CMLSTYLE
  2
Standard
  9
$CMLJUST
 70
     0
  9
$CMLSCALE
 40
20.0
  9
$PROXYGRAPHICS
 70
     1
  9
$MEASUREMENT
 70
     1
  9
$CELWEIGHT
370
    -1
  9
$ENDCAPS
280
     0
  9
$JOINSTYLE
280
     0
  9
$LWDISPLAY
290
     1
  9
$INSUNITS
 70
     4
  9
$HYPERLINKBASE
  1

  9
$STYLESHEET
  1

  9
$XEDIT
290
     1
  9
$CEPSNTYPE
380
     0
  9
$PSTYLEMODE
290
     1
  9
$FINGERPRINTGUID
  2
{98bc564c-079b-481d-948d-07617d4825e0}
  9
$VERSIONGUID
  2
{FAEB1C32-E019-11D5-929B-00C0DF256EC4}
  9
$EXTNAMES
290
     1
  9
$PSVPSCALE
 40
0.0
  9
$OLESTARTUP
290
     0
  0
ENDSEC
  0
SECTION
  2
CLASSES
  0
CLASS
  1
ACDBDICTIONARYWDFLT
  2
AcDbDictionaryWithDefault
  3
ObjectDBX Classes
 90
        0
280
     0
281
     0
  0
CLASS
  1
VISUALSTYLE
  2
AcDbVisualStyle
  3
ObjectDBX Classes
 90
     4095
280
     0
281
     0
  0
CLASS
  1
MATERIAL
  2
AcDbMaterial
  3
ObjectDBX Classes
 90
     1153
280
     0
281
     0
  0
CLASS
  1
SCALE
  2
AcDbScale
  3
ObjectDBX Classes
 90
     1153
280
     0
281
     0
  0
CLASS
  1
TABLESTYLE
  2
AcDbTableStyle
  3
ObjectDBX Classes
 90
     4095
280
     0
281
     0
  0
CLASS
  1
MLEADERSTYLE
  2
AcDbMLeaderStyle
  3
ACDB_MLEADERSTYLE_CLASS
 90
     4095
280
     0
281
     0
  0
CLASS
  1
SUN
  2
AcDbSun
  3
SCENEOE
 90
     1153
280
     0
281
     0
  0
CLASS
  1
ACDBPLACEHOLDER
  2
AcDbPlaceHolder
  3
ObjectDBX Classes
 90
        0
280
     0
281
     0
  0
CLASS
  1
LAYOUT
  2
AcDbLayout
  3
ObjectDBX Classes
 90
        0
280
     0
281
     0
  0
ENDSEC
  0
SECTION
  2
TABLES
  0
TABLE
  2
VPORT
  5
8
330
0
100
AcDbSymbolTable
 70
     1
  0
VPORT
  5
29
330
8
100
AcDbSymbolTableRecord
100
AcDbViewportTableRecord
  2
*Active
 70
     0
 10
0.0
 20
0.0
 11
1.0
 21
1.0
 12
-70.0
 22
12.75
 13
0.0
 23
0.0
 14
10.0
 24
10.0
 15
10.0
 25
10.0
 16
0.0
 26
0.0
 36
1.0
 17
0.0
 27
0.0
 37
0.0
 40
26.01
 41
8.7843137255
 42
50.0
 43
0.0
 44
0.0
 50
0.0
 51
0.0
 71
     0
 72
   100
 73
     1
 74
     3
 75
     0
 76
     0
 77
     0
 78
     0
281
     0
 65
     1
110
0.0
120
0.0
130
0.0
111
1.0
121
0.0
131
0.0
112
0.0
122
1.0
132
0.0
 79
     0
146
0.0
  0
ENDTAB
  0
TABLE
  2
LTYPE
  5
5
330
0
100
AcDbSymbolTable
 70
     6
  0
LTYPE
  5
14
330
5
100
AcDbSymbolTableRecord
100
AcDbLinetypeTableRecord
  2
ByBlock
 70
     0
  3

 72
    65
 73
     0
 40
0.0
  0
LTYPE
  5
15
330
5
100
AcDbSymbolTableRecord
100
AcDbLinetypeTableRecord
  2
ByLayer
 70
     0
  3

 72
    65
 73
     0
 40
0.0
  0
LTYPE
  5
16
330
5
100
AcDbSymbolTableRecord
100
AcDbLinetypeTableRecord
  2
Continuous
 70
     0
  3
Solid line
 72
    65
 73
     0
 40
0.0
  0
LTYPE
  5
6E
330
5
100
AcDbSymbolTableRecord
100
AcDbLinetypeTableRecord
  2
HIDDEN
 70
     0
  3
Hidden __ __ __ __ __ __ __ __ __ __ __ __ __ __
 72
    65
 73
     2
 40
1.905
 49
1.27
 74
     0
 49
-0.635
 74
     0
  0
LTYPE
  5
6F
330
5
100
AcDbSymbolTableRecord
100
AcDbLinetypeTableRecord
  2
PHANTOM
 70
     0
  3
Phantom ______  __  __  ______  __  __  ______
 72
    65
 73
     6
 40
12.7
 49
6.35
 74
     0
 49
-1.27
 74
     0
 49
1.27
 74
     0
 49
-1.27
 74
     0
 49
1.27
 74
     0
 49
-1.27
 74
     0
  0
LTYPE
  5
70
330
5
100
AcDbSymbolTableRecord
100
AcDbLinetypeTableRecord
  2
CENTER
 70
     0
  3
Center ____ _ ____ _ ____ _ ____ _ ____ _ ____
 72
    65
 73
     4
 40
10.16
 49
6.35
 74
     0
 49
-1.27
 74
     0
 49
1.27
 74
     0
 49
-1.27
 74
     0
  0
LTYPE
  5
71
330
5
100
AcDbSymbolTableRecord
100
AcDbLinetypeTableRecord
  2
CENTERX2
 70
     0
  3
Center (2x) ________  __  ________  __  _____
 72
    65
 73
     4
 40
20.32
 49
12.7
 74
     0
 49
-2.54
 74
     0
 49
2.54
 74
     0
 49
-2.54
 74
     0
  0
LTYPE
  5
72
330
5
100
AcDbSymbolTableRecord
100
AcDbLinetypeTableRecord
  2
DOT2
 70
     0
  3
Dot (.5x) ........................................
 72
    65
 73
     2
 40
0.635
 49
0.0
 74
     0
 49
-0.635
 74
     0
  0
ENDTAB
  0
TABLE
  2
LAYER
  5
2
330
0
100
AcDbSymbolTable
 70
     1
  0
LAYER
  5
10
330
2
100
AcDbSymbolTableRecord
100
AcDbLayerTableRecord
  2
0
 70
     0
 62
     7
  6
Continuous
370
    -3
390
F
  0
ENDTAB
  0
TABLE
  2
STYLE
  5
3
330
0
100
AcDbSymbolTable
 70
     1
  0
STYLE
  5
11
330
3
100
AcDbSymbolTableRecord
100
AcDbTextStyleTableRecord
  2
Standard
 70
     0
 40
0.0
 41
1.0
 50
0.0
 71
     0
 42
3.5
  3
txt
  4

  0
ENDTAB
  0
TABLE
  2
VIEW
  5
6
330
0
100
AcDbSymbolTable
 70
     0
  0
ENDTAB
  0
TABLE
  2
UCS
  5
7
330
0
100
AcDbSymbolTable
 70
     0
  0
ENDTAB
  0
TABLE
  2
APPID
  5
9
330
0
100
AcDbSymbolTable
 70
     1
  0
APPID
  5
12
330
9
100
AcDbSymbolTableRecord
100
AcDbRegAppTableRecord
  2
ACAD
 70
     0
  0
ENDTAB
  0
TABLE
  2
DIMSTYLE
  5
A
330
0
100
AcDbSymbolTable
 70
     1
100
AcDbDimStyleTable
  0
DIMSTYLE
105
27
330
A
100
AcDbSymbolTableRecord
100
AcDbDimStyleTableRecord
  2
ISO-25
 70
     0
 41
2.5
 42
0.625
 43
3.75
 44
1.25
 73
     0
 74
     0
 77
     1
 78
     8
140
2.5
141
2.5
143
0.0393700787
147
0.625
171
     3
172
     1
178
     0
271
     2
272
     2
274
     3
278
    44
283
     0
284
     8
340
11
  0
ENDTAB
  0
TABLE
  2
BLOCK_RECORD
  5
1
330
0
100
AcDbSymbolTable
 70
     8
  0
BLOCK_RECORD
  5
1F
330
1
100
AcDbSymbolTableRecord
100
AcDbBlockTableRecord
  2
*Model_Space
340
22
  0
BLOCK_RECORD
  5
1B
330
1
100
AcDbSymbolTableRecord
100
AcDbBlockTableRecord
  2
*Paper_Space
340
1E
  0
BLOCK_RECORD
  5
23
330
1
100
AcDbSymbolTableRecord
100
AcDbBlockTableRecord
  2
*Paper_Space0
340
26
  0
BLOCK_RECORD
  5
16A
330
1
100
AcDbSymbolTableRecord
100
AcDbBlockTableRecord
  2
*Paper_Space1
340
16B
  0
BLOCK_RECORD
  5
1A6
330
1
100
AcDbSymbolTableRecord
100
AcDbBlockTableRecord
  2
*Paper_Space2
340
1A7
  0
BLOCK_RECORD
  5
1E6
330
1
100
AcDbSymbolTableRecord
100
AcDbBlockTableRecord
  2
*Paper_Space3
340
1E7
  0
BLOCK_RECORD
  5
22B
330
1
100
AcDbSymbolTableRecord
100
AcDbBlockTableRecord
  2
*Paper_Space4
340
22C
  0
BLOCK_RECORD
  5
2DF
330
1
100
AcDbSymbolTableRecord
100
AcDbBlockTableRecord
  2
*Paper_Space5
340
2E0
  0
BLOCK_RECORD
  5
395
330
1
100
AcDbSymbolTableRecord
100
AcDbBlockTableRecord
  2
*Paper_Space6
340
396
  0
BLOCK_RECORD
  5
458
330
1
100
AcDbSymbolTableRecord
100
AcDbBlockTableRecord
  2
*Paper_Space7
340
459
  0
ENDTAB
  0
ENDSEC
  0
SECTION
  2
BLOCKS
  0
BLOCK
  5
20
330
1F
100
AcDbEntity
  8
0
100
AcDbBlockBegin
  2
*Model_Space
 70
     0
 10
0.0
 20
0.0
 30
0.0
  3
*Model_Space
  1

  0
ENDBLK
  5
21
330
1F
100
AcDbEntity
  8
0
100
AcDbBlockEnd
  0
BLOCK
  5
1C
330
1B
100
AcDbEntity
 67
     1
  8
0
100
AcDbBlockBegin
  2
*Paper_Space
 70
     0
 10
0.0
 20
0.0
 30
0.0
  3
*Paper_Space
  1

  0
ENDBLK
  5
1D
330
1B
100
AcDbEntity
 67
     1
  8
0
100
AcDbBlockEnd
  0
BLOCK
  5
24
330
23
100
AcDbEntity
  8
0
100
AcDbBlockBegin
  2
*Paper_Space0
 70
     0
 10
0.0
 20
0.0
 30
0.0
  3
*Paper_Space0
  1

  0
LWPOLYLINE
  5
100
330
23
100
AcDbEntity
  8
0
  6
Continuous
 62
     7
370
    25
100
AcDbPolyline
 90
        9
 70
   128
 43
0.0
 10
-2.8220175259
 20
23.5
 10
-2.8186103299
 20
23.597545161
 10
-2.8085196786
 20
23.6913417162
 10
-2.79213335
 20
23.7777851165
 10
-2.7700810615
 20
23.8535533906
 10
-2.7432102703
 20
23.9157348062
 10
-2.7125536057
 20
23.9619397663
 10
-2.6792891862
 20
23.9903926402
 10
-2.6446953448
 20
24.0
  0
LWPOLYLINE
  5
103
330
23
100
AcDbEntity
  8
0
  6
Continuous
 62
     7
370
    25
100
AcDbPolyline
 90
        9
 70
   128
 43
0.0
 10
-2.8220175259
 20
0.5
 10
-2.8186103299
 20
0.402454839
 10
-2.8085196786
 20
0.3086582838
 10
-2.79213335
 20
0.2222148835
 10
-2.7700810615
 20
0.1464466094
 10
-2.7432102703
 20
0.0842651938
 10
-2.7125536057
 20
0.0380602337
 10
-2.6792891862
 20
0.0096073598
 10
-2.6446953448
 20
0.0
  0
LWPOLYLINE
  5
11D
330
23
100
AcDbEntity
  8
0
  6
Continuous
 62
     7
370
    25
100
AcDbPolyline
 90
        9
 70
   128
 43
0.0
 10
142.6446953448
 20
0.0
 10
142.6792891862
 20
0.0096073598
 10
142.7125536057
 20
0.0380602337
 10
142.7432102703
 20
0.0842651938
 10
142.7700810615
 20
0.1464466094
 10
142.79213335
 20
0.2222148835
 10
142.8085196786
 20
0.3086582838
 10
142.8186103299
 20
0.402454839
 10
142.8220175259
 20
0.5
  0
LWPOLYLINE
  5
11F
330
23
100
AcDbEntity
  8
0
  6
Continuous
 62
     7
370
    25
100
AcDbPolyline
 90
        9
 70
   128
 43
0.0
 10
142.8220175259
 20
23.5
 10
142.8186103299
 20
23.597545161
 10
142.8085196786
 20
23.6913417162
 10
142.79213335
 20
23.7777851165
 10
142.7700810615
 20
23.8535533906
 10
142.7432102703
 20
23.9157348062
 10
142.7125536057
 20
23.9619397663
 10
142.6792891862
 20
23.9903926402
 10
142.6446953448
 20
24.0
  0
SPLINE
  5
133
330
23
100
AcDbEntity
  8
0
  6
Continuous
 62
     7
370
    25
100
AcDbSpline
210
0.0
220
0.0
230
1.0
 70
     8
 71
     3
 72
    10
 73
     6
 74
     0
 42
0.000000001
 43
0.00000001
 40
0.0
 40
0.0
 40
0.0
 40
0.0
 40
0.5
 40
0.5
 40
1.0
 40
1.0
 40
1.0
 40
1.0
 10
141.9239207145536
 20
2.200000000000001
 30
0.0
 10
141.9239207145536
 20
2.146479277377007
 30
0.0
 10
141.9199353900274
 20
2.094345026685027
 30
0.0
 10
141.9067243326211
 20
2.021094528441301
 30
0.0
 10
141.8975734810952
 20
1.999999999997178
 30
0.0
 10
141.8882862099381
 20
1.999999999996989
 30
0.0
  0
SPLINE
  5
135
330
23
100
AcDbEntity
  8
0
  6
Continuous
 62
     7
370
    25
100
AcDbSpline
210
0.0
220
0.0
230
1.0
 70
     8
 71
     3
 72
    10
 73
     6
 74
     0
 42
0.000000001
 43
0.00000001
 40
0.0
 40
0.0
 40
0.0
 40
0.0
 40
0.5
 40
0.5
 40
1.0
 40
1.0
 40
1.0
 40
1.0
 10
-1.888286209937945
 20
2.0
 30
0.0
 10
-1.897577422468211
 20
2.0
 30
0.0
 10
-1.906687514758865
 20
2.020942752231194
 30
0.0
 10
-1.919936080374593
 20
2.094296631643821
 30
0.0
 10
-1.923920714553523
 20
2.146453639583573
 30
0.0
 10
-1.923920714553523
 20
2.199999999999952
 30
0.0
  0
SPLINE
  5
13A
330
23
100
AcDbEntity
  8
0
  6
Continuous
 62
     7
370
    25
100
AcDbSpline
210
0.0
220
0.0
230
1.0
 70
     8
 71
     3
 72
    10
 73
     6
 74
     0
 42
0.000000001
 43
0.00000001
 40
0.0
 40
0.0
 40
0.0
 40
0.0
 40
0.5
 40
0.5
 40
1.0
 40
1.0
 40
1.0
 40
1.0
 10
141.888286209938
 20
22.0
 30
0.0
 10
141.8975774224683
 20
22.0
 30
0.0
 10
141.9066875147589
 20
21.9790572477688
 30
0.0
 10
141.9199360803747
 20
21.90570336835618
 30
0.0
 10
141.9239207145536
 20
21.85354636041643
 30
0.0
 10
141.9239207145536
 20
21.80000000000005
 30
0.0
  0
SPLINE
  5
13B
330
23
100
AcDbEntity
  8
0
  6
Continuous
 62
     7
370
    25
100
AcDbSpline
210
0.0
220
0.0
230
1.0
 70
     8
 71
     3
 72
    10
 73
     6
 74
     0
 42
0.000000001
 43
0.00000001
 40
0.0
 40
0.0
 40
0.0
 40
0.0
 40
0.5
 40
0.5
 40
1.0
 40
1.0
 40
1.0
 40
1.0
 10
-1.92392071455344
 20
21.8
 30
0.0
 10
-1.92392071455344
 20
21.853520722623
 30
0.0
 10
-1.919935390027258
 20
21.90565497331498
 30
0.0
 10
-1.90672433262104
 20
21.9789054715587
 30
0.0
 10
-1.897573481095066
 20
22.00000000000283
 30
0.0
 10
-1.888286209938084
 20
22.00000000000301
 30
0.0
  0
LINE
  5
13E
330
23
100
AcDbEntity
  8
0
  6
Continuous
 62
     7
370
    25
100
AcDbLine
 10
140.0958767963
 20
23.5868240888
 30
0.0
 11
140.0958767963
 21
22.0
 31
0.0
  0
LINE
  5
13F
330
23
100
AcDbEntity
  8
0
  6
Continuous
 62
     7
370
    25
100
AcDbLine
 10
140.0958767963
 20
2.0
 30
0.0
 11
140.0958767963
 21
0.4131759112
 31
0.0
  0
LINE
  5
140
330
23
100
AcDbEntity
  8
0
  6
Continuous
 62
     7
370
    25
100
AcDbLine
 10
-2.8220175259
 20
0.5
 30
0.0
 11
-2.8220175259
 21
23.5
 31
0.0
  0
LINE
  5
141
330
23
100
AcDbEntity
  8
0
  6
Continuous
 62
     7
370
    25
100
AcDbLine
 10
0.0
 20
23.5
 30
0.0
 11
-42.0
 21
23.5
 31
0.0
  0
LINE
  5
142
330
23
100
AcDbEntity
  8
0
  6
Continuous
 62
     7
370
    25
100
AcDbLine
 10
-2.1522914683
 20
23.5
 30
0.0
 11
-2.1522914683
 21
0.5
 31
0.0
  0
LINE
  5
143
330
23
100
AcDbEntity
  8
0
  6
Continuous
 62
     7
370
    25
100
AcDbLine
 10
-42.0
 20
0.5
 30
0.0
 11
0.0
 21
0.5
 31
0.0
  0
LINE
  5
144
330
23
100
AcDbEntity
  8
0
  6
Continuous
 62
     7
370
    25
100
AcDbLine
 10
-41.5
 20
24.0
 30
0.0
 11
-0.5077133059
 21
24.0
 31
0.0
  0
LINE
  5
145
330
23
100
AcDbEntity
  8
0
  6
Continuous
 62
     7
370
    25
100
AcDbLine
 10
-41.5361625772
 20
23.5
 30
0.0
 11
-41.5361625772
 21
0.5
 31
0.0
  0
LINE
  5
146
330
23
100
AcDbEntity
  8
0
  6
Continuous
 62
     7
370
    25
100
AcDbLine
 10
-0.5077133059
 20
0.0
 30
0.0
 11
-41.5
 21
0.0
 31
0.0
  0
LINE
  5
147
330
23
100
AcDbEntity
  8
0
  6
Continuous
 62
     7
370
    25
100
AcDbLine
 10
0.0
 20
23.5
 30
0.0
 11
0.0
 21
22.0
 31
0.0
  0
LINE
  5
148
330
23
100
AcDbEntity
  8
0
  6
Continuous
 62
     7
370
    25
100
AcDbLine
 10
0.0
 20
2.0
 30
0.0
 11
0.0
 21
0.5
 31
0.0
  0
LINE
  5
149
330
23
100
AcDbEntity
  8
0
  6
Continuous
 62
     7
370
    25
100
AcDbLine
 10
-42.0
 20
0.5
 30
0.0
 11
-42.0
 21
23.5
 31
0.0
  0
LINE
  5
14A
330
23
100
AcDbEntity
  8
0
  6
Continuous
 62
     7
370
    25
100
AcDbLine
 10
142.1522914683
 20
0.5
 30
0.0
 11
142.1522914683
 21
23.5
 31
0.0
  0
LINE
  5
14B
330
23
100
AcDbEntity
  8
0
  6
Continuous
 62
     7
370
    25
100
AcDbLine
 10
182.0
 20
23.5
 30
0.0
 11
140.1034729198
 21
23.5
 31
0.0
  0
LINE
  5
14C
330
23
100
AcDbEntity
  8
0
  6
Continuous
 62
     7
370
    25
100
AcDbLine
 10
142.8220175259
 20
23.5
 30
0.0
 11
142.8220175259
 21
0.5
 31
0.0
  0
LINE
  5
14D
330
23
100
AcDbEntity
  8
0
  6
Continuous
 62
     7
370
    25
100
AcDbLine
 10
140.1034729198
 20
0.5
 30
0.0
 11
182.0
 21
0.5
 31
0.0
  0
LINE
  5
14E
330
23
100
AcDbEntity
  8
0
  6
Continuous
 62
     7
370
    25
100
AcDbLine
 10
181.5
 20
0.0
 30
0.0
 11
140.5090527075
 21
0.0
 31
0.0
  0
LINE
  5
14F
330
23
100
AcDbEntity
  8
0
  6
Continuous
 62
     7
370
    25
100
AcDbLine
 10
140.5090527075
 20
24.0
 30
0.0
 11
181.5
 21
24.0
 31
0.0
  0
LINE
  5
150
330
23
100
AcDbEntity
  8
0
  6
Continuous
 62
     7
370
    25
100
AcDbLine
 10
181.5361625772
 20
0.5
 30
0.0
 11
181.5361625772
 21
23.5
 31
0.0
  0
LINE
  5
151
330
23
100
AcDbEntity
  8
0
  6
Continuous
 62
     7
370
    25
100
AcDbLine
 10
182.0
 20
23.5
 30
0.0
 11
182.0
 21
0.5
 31
0.0
  0
LINE
  5
152
330
23
100
AcDbEntity
  8
0
  6
Continuous
 62
     7
370
    25
100
AcDbLine
 10
-1.9239207146
 20
2.2
 30
0.0
 11
141.9239207146
 21
2.2
 31
0.0
  0
LINE
  5
153
330
23
100
AcDbEntity
  8
0
  6
Continuous
 62
     7
370
    25
100
AcDbLine
 10
141.8882862099
 20
2.0
 30
0.0
 11
-1.8882862099
 21
2.0
 31
0.0
  0
LINE
  5
154
330
23
100
AcDbEntity
  8
0
  6
Continuous
 62
     7
370
    25
100
AcDbLine
 10
-1.9239207146
 20
21.8
 30
0.0
 11
-1.9239207146
 21
2.2
 31
0.0
  0
LINE
  5
155
330
23
100
AcDbEntity
  8
0
  6
Continuous
 62
     7
370
    25
100
AcDbLine
 10
141.9239207146
 20
21.8
 30
0.0
 11
-1.9239207146
 21
21.8
 31
0.0
  0
LINE
  5
156
330
23
100
AcDbEntity
  8
0
  6
Continuous
 62
     7
370
    25
100
AcDbLine
 10
141.9239207146
 20
21.8
 30
0.0
 11
141.9239207146
 21
2.2
 31
0.0
  0
LINE
  5
157
330
23
100
AcDbEntity
  8
0
  6
Continuous
 62
     7
370
    25
100
AcDbLine
 10
-1.8882862099
 20
22.0
 30
0.0
 11
141.8882862099
 21
22.0
 31
0.0
  0
LINE
  5
158
330
23
100
AcDbEntity
  8
0
  6
Continuous
 62
     8
370
    25
100
AcDbLine
 10
140.1034729198
 20
23.5
 30
0.0
 11
140.1034729198
 21
22.0
 31
0.0
  0
LINE
  5
159
330
23
100
AcDbEntity
  8
0
  6
Continuous
 62
     8
370
    25
100
AcDbLine
 10
140.1034729198
 20
2.0
 30
0.0
 11
140.1034729198
 21
0.5
 31
0.0
  0
ARC
  5
15A
330
23
100
AcDbEntity
  8
0
  6
Continuous
 62
     7
370
    25
100
AcDbCircle
 10
-2.6485227022
 20
23.5037692112
 30
0.0
 40
0.4962455485105697
100
AcDbArc
 50
359.5648082465
 51
89.5580945801
  0
ARC
  5
15B
330
23
100
AcDbEntity
  8
0
  6
Continuous
 62
     7
370
    25
100
AcDbCircle
 10
-2.6485227022
 20
0.4962307888
 30
0.0
 40
0.4962455485105675
100
AcDbArc
 50
270.4419054199
 51
0.4351917535
  0
ARC
  5
15C
330
23
100
AcDbEntity
  8
0
  6
Continuous
 62
     7
370
    25
100
AcDbCircle
 10
-39.7807346217
 20
23.624346134
 30
0.0
 40
1.759826488074927
100
AcDbArc
 50
167.6747619874
 51
184.0517916748
  0
ARC
  5
15D
330
23
100
AcDbEntity
  8
0
  6
Continuous
 62
     7
370
    25
100
AcDbCircle
 10
-39.7807346217
 20
0.375653866
 30
0.0
 40
1.759826488076124
100
AcDbArc
 50
175.9482083252
 51
192.3252380126
  0
ARC
  5
15E
330
23
100
AcDbEntity
  8
0
  6
Continuous
 62
     7
370
    25
100
AcDbCircle
 10
-0.5038859486
 20
23.4961135995
 30
0.0
 40
0.5039009359874569
100
AcDbArc
 50
0.4419054199
 51
90.4351917535
  0
ARC
  5
15F
330
23
100
AcDbEntity
  8
0
  6
Continuous
 62
     7
370
    25
100
AcDbCircle
 10
-0.5038859486
 20
0.5038864005
 30
0.0
 40
0.503900935987457
100
AcDbArc
 50
269.5648082465
 51
359.5580945801
  0
ARC
  5
160
330
23
100
AcDbEntity
  8
0
  6
Continuous
 62
     7
370
    25
100
AcDbCircle
 10
-41.5
 20
0.5
 30
0.0
 40
0.5000000000000143
100
AcDbArc
 50
180.0
 51
270.0
  0
ARC
  5
161
330
23
100
AcDbEntity
  8
0
  6
Continuous
 62
     7
370
    25
100
AcDbCircle
 10
-41.5
 20
23.5
 30
0.0
 40
0.5000000000000142
100
AcDbArc
 50
90.0
 51
180.0
  0
ARC
  5
162
330
23
100
AcDbEntity
  8
0
  6
Continuous
 62
     7
370
    25
100
AcDbCircle
 10
142.6485227022
 20
0.4962307888
 30
0.0
 40
0.4962455485105706
100
AcDbArc
 50
179.5648082465
 51
269.5580945801
  0
ARC
  5
163
330
23
100
AcDbEntity
  8
0
  6
Continuous
 62
     7
370
    25
100
AcDbCircle
 10
142.6485227022
 20
23.5037692112
 30
0.0
 40
0.4962455485105839
100
AcDbArc
 50
90.4419054199
 51
180.4351917535
  0
ARC
  5
164
330
23
100
AcDbEntity
  8
0
  6
Continuous
 62
     7
370
    25
100
AcDbCircle
 10
179.7807346217
 20
0.375653866
 30
0.0
 40
1.759826488075879
100
AcDbArc
 50
347.6747619874
 51
4.0517916748
  0
ARC
  5
165
330
23
100
AcDbEntity
  8
0
  6
Continuous
 62
     7
370
    25
100
AcDbCircle
 10
179.7807346217
 20
23.624346134
 30
0.0
 40
1.759826488075793
100
AcDbArc
 50
355.9482083252
 51
12.3252380126
  0
ARC
  5
166
330
23
100
AcDbEntity
  8
0
  6
Continuous
 62
     7
370
    25
100
AcDbCircle
 10
140.5029526911
 20
0.4095468774
 30
0.0
 40
0.4095923034253947
100
AcDbArc
 50
167.2418030818
 51
270.8533317491
  0
ARC
  5
167
330
23
100
AcDbEntity
  8
0
  6
Continuous
 62
     7
370
    25
100
AcDbCircle
 10
140.5023236938
 20
23.5909633397
 30
0.0
 40
0.4090920056504793
100
AcDbArc
 50
89.0575189293
 51
192.8473462399
  0
ARC
  5
168
330
23
100
AcDbEntity
  8
0
  6
Continuous
 62
     7
370
    25
100
AcDbCircle
 10
181.5
 20
23.5
 30
0.0
 40
0.5000000000000284
100
AcDbArc
 50
0.0
 51
90.0
  0
ARC
  5
169
330
23
100
AcDbEntity
  8
0
  6
Continuous
 62
     7
370
    25
100
AcDbCircle
 10
181.5
 20
0.5
 30
0.0
 40
0.5000000000000285
100
AcDbArc
 50
270.0
 51
360.0
  0
VIEWPORT
  5
4EC
330
23
100
AcDbEntity
  8
0
100
AcDbViewport
 10
0.0
 20
0.0
 30
0.0
 40
205.6
 41
156.0
 68
     1
 69
     1
 12
-70.0
 22
12.75
 13
0.0
 23
0.0
 14
10.0
 24
10.0
 15
10.0
 25
10.0
 16
0.0
 26
0.0
 36
1.0
 17
0.0
 27
0.0
 37
0.0
 42
50.0
 43
0.0
 44
0.0
 45
173.360311284
 50
0.0
 51
0.0
 72
   100
 90
   557152
  1

281
     0
 71
     1
 74
     0
110
0.0
120
0.0
130
0.0
111
1.0
121
0.0
131
0.0
112
0.0
122
1.0
132
0.0
 79
     0
146
0.0
  0
ENDBLK
  5
25
330
23
100
AcDbEntity
  8
0
100
AcDbBlockEnd
  0
BLOCK
  5
16C
330
16A
100
AcDbEntity
  8
0
100
AcDbBlockBegin
  2
*Paper_Space1
 70
     0
 10
0.0
 20
0.0
 30
0.0
  3
*Paper_Space1
  1

  0
LINE
  5
190
330
16A
100
AcDbEntity
  8
0
  6
Continuous
 62
     7
370
    25
100
AcDbLine
 10
-12.6194273858
 20
23.5
 30
0.0
 11
-12.6194273858
 21
0.5
 31
0.0
  0
LINE
  5
191
330
16A
100
AcDbEntity
  8
0
  6
Continuous
 62
     7
370
    25
100
AcDbLine
 10
-25.5
 20
21.8
 30
0.0
 11
-25.5
 21
2.2
 31
0.0
  0
LINE
  5
192
330
16A
100
AcDbEntity
  8
0
  6
Continuous
 62
     7
370
    25
100
AcDbLine
 10
0.0
 20
23.5
 30
0.0
 11
-12.6194273858
 21
23.5
 31
0.0
  0
LINE
  5
193
330
16A
100
AcDbEntity
  8
0
  6
Continuous
 62
     7
370
    25
100
AcDbLine
 10
-12.6194273858
 20
0.5
 30
0.0
 11
0.0
 21
0.5
 31
0.0
  0
LINE
  5
194
330
16A
100
AcDbEntity
  8
0
  6
Continuous
 62
     7
370
    25
100
AcDbLine
 10
-3.5341541805
 20
24.0
 30
0.0
 11
-3.5341541805
 21
0.0
 31
0.0
  0
LINE
  5
195
330
16A
100
AcDbEntity
  8
0
  6
Continuous
 62
     7
370
    25
100
AcDbLine
 10
-12.1194273858
 20
24.0
 30
0.0
 11
0.0
 21
24.0
 31
0.0
  0
LINE
  5
196
330
16A
100
AcDbEntity
  8
0
  6
Continuous
 62
     7
370
    25
100
AcDbLine
 10
-4.0328447339
 20
0.5
 30
0.0
 11
-4.0328447339
 21
23.5
 31
0.0
  0
LINE
  5
197
330
16A
100
AcDbEntity
  8
0
  6
Continuous
 62
     7
370
    25
100
AcDbLine
 10
0.0
 20
0.0
 30
0.0
 11
-12.1194273858
 21
0.0
 31
0.0
  0
LINE
  5
198
330
16A
100
AcDbEntity
  8
0
  6
Continuous
 62
     7
370
    25
100
AcDbLine
 10
0.0
 20
24.0
 30
0.0
 11
0.0
 21
0.0
 31
0.0
  0
LINE
  5
199
330
16A
100
AcDbEntity
  8
0
  6
Continuous
 62
     7
370
    25
100
AcDbLine
 10
-12.5869280212
 20
23.5
 30
0.0
 11
-12.5869280212
 21
0.5
 31
0.0
  0
LINE
  5
19A
330
16A
100
AcDbEntity
  8
0
  6
Continuous
 62
     7
370
    25
100
AcDbLine
 10
-25.3
 20
22.0
 30
0.0
 11
-12.6194273858
 21
22.0
 31
0.0
  0
LINE
  5
19B
330
16A
100
AcDbEntity
  8
0
  6
Continuous
 62
     7
370
    25
100
AcDbLine
 10
-12.6194273858
 20
2.0
 30
0.0
 11
-25.3
 21
2.0
 31
0.0
  0
LINE
  5
19C
330
16A
100
AcDbEntity
  8
0
  6
Continuous
 62
     8
370
    25
100
AcDbLine
 10
-12.6194273858
 20
21.8
 30
0.0
 11
-25.5
 21
21.8
 31
0.0
  0
LINE
  5
19D
330
16A
100
AcDbEntity
  8
0
  6
Continuous
 62
     8
370
    25
100
AcDbLine
 10
-25.5
 20
2.2
 30
0.0
 11
-12.6194273858
 21
2.2
 31
0.0
  0
ARC
  5
19E
330
16A
100
AcDbEntity
  8
0
  6
Continuous
 62
     7
370
    25
100
AcDbCircle
 10
-12.1194273858
 20
23.5
 30
0.0
 40
0.5
100
AcDbArc
 50
90.0
 51
180.0
  0
ARC
  5
19F
330
16A
100
AcDbEntity
  8
0
  6
Continuous
 62
     7
370
    25
100
AcDbCircle
 10
-12.1194273858
 20
0.5
 30
0.0
 40
0.5
100
AcDbArc
 50
180.0
 51
270.0
  0
ARC
  5
1A0
330
16A
100
AcDbEntity
  8
0
  6
Continuous
 62
     7
370
    25
100
AcDbCircle
 10
-25.3
 20
21.8
 30
0.0
 40
0.1999999999999922
100
AcDbArc
 50
90.0
 51
180.0
  0
ARC
  5
1A1
330
16A
100
AcDbEntity
  8
0
  6
Continuous
 62
     7
370
    25
100
AcDbCircle
 10
-25.3
 20
2.2
 30
0.0
 40
0.1999999999999971
100
AcDbArc
 50
180.0
 51
270.0
  0
ARC
  5
1A2
330
16A
100
AcDbEntity
  8
0
  6
Continuous
 62
     7
370
    25
100
AcDbCircle
 10
-3.5334985976
 20
23.500653866
 30
0.0
 40
0.4993465643559935
100
AcDbArc
 50
90.0752225941
 51
180.075025594
  0
ARC
  5
1A3
330
16A
100
AcDbEntity
  8
0
  6
Continuous
 62
     7
370
    25
100
AcDbCircle
 10
-3.5334985976
 20
0.499346134
 30
0.0
 40
0.4993465643560028
100
AcDbArc
 50
179.924974406
 51
269.9247774059
  0
ARC
  5
1A4
330
16A
100
AcDbEntity
  8
0
  6
Continuous
 62
     7
370
    25
100
AcDbCircle
 10
-12.1026128868
 20
23.515721578
 30
0.0
 40
0.4845702399392937
100
AcDbArc
 50
91.9885523064
 51
181.8592519665
  0
ARC
  5
1A5
330
16A
100
AcDbEntity
  8
0
  6
Continuous
 62
     7
370
    25
100
AcDbCircle
 10
-12.1026128868
 20
0.484278422
 30
0.0
 40
0.4845702399392928
100
AcDbArc
 50
178.1407480335
 51
268.0114476936
  0
VIEWPORT
  5
4EE
330
16A
100
AcDbEntity
  8
0
100
AcDbViewport
 10
0.0
 20
0.0
 30
0.0
 40
205.6
 41
156.0
 68
     1
 69
     1
 12
-70.0
 22
12.75
 13
0.0
 23
0.0
 14
10.0
 24
10.0
 15
10.0
 25
10.0
 16
0.0
 26
0.0
 36
1.0
 17
0.0
 27
0.0
 37
0.0
 42
50.0
 43
0.0
 44
0.0
 45
173.360311284
 50
0.0
 51
0.0
 72
   100
 90
   557152
  1

281
     0
 71
     1
 74
     0
110
0.0
120
0.0
130
0.0
111
1.0
121
0.0
131
0.0
112
0.0
122
1.0
132
0.0
 79
     0
146
0.0
  0
ENDBLK
  5
16D
330
16A
100
AcDbEntity
  8
0
100
AcDbBlockEnd
  0
BLOCK
  5
1A8
330
1A6
100
AcDbEntity
  8
0
100
AcDbBlockBegin
  2
*Paper_Space2
 70
     0
 10
0.0
 20
0.0
 30
0.0
  3
*Paper_Space2
  1

  0
LINE
  5
1CD
330
1A6
100
AcDbEntity
  8
0
  6
Continuous
 62
     7
370
    25
100
AcDbLine
 10
12.6194273858
 20
0.5
 30
0.0
 11
12.6194273858
 21
23.5
 31
0.0
  0
LINE
  5
1CE
330
1A6
100
AcDbEntity
  8
0
  6
Continuous
 62
     7
370
    25
100
AcDbLine
 10
25.5
 20
2.2
 30
0.0
 11
25.5
 21
21.8
 31
0.0
  0
LINE
  5
1CF
330
1A6
100
AcDbEntity
  8
0
  6
Continuous
 62
     7
370
    25
100
AcDbLine
 10
0.5
 20
0.5
 30
0.0
 11
12.6194273858
 21
0.5
 31
0.0
  0
LINE
  5
1D0
330
1A6
100
AcDbEntity
  8
0
  6
Continuous
 62
     7
370
    25
100
AcDbLine
 10
3.5341541805
 20
0.0
 30
0.0
 11
3.5341541805
 21
24.0
 31
0.0
  0
LINE
  5
1D1
330
1A6
100
AcDbEntity
  8
0
  6
Continuous
 62
     7
370
    25
100
AcDbLine
 10
0.5
 20
23.5
 30
0.0
 11
0.5
 21
0.5
 31
0.0
  0
LINE
  5
1D2
330
1A6
100
AcDbEntity
  8
0
  6
Continuous
 62
     7
370
    25
100
AcDbLine
 10
12.6194273858
 20
23.5
 30
0.0
 11
0.5
 21
23.5
 31
0.0
  0
LINE
  5
1D3
330
1A6
100
AcDbEntity
  8
0
  6
Continuous
 62
     7
370
    25
100
AcDbLine
 10
4.0328447339
 20
23.5
 30
0.0
 11
4.0328447339
 21
0.5
 31
0.0
  0
LINE
  5
1D4
330
1A6
100
AcDbEntity
  8
0
  6
Continuous
 62
     7
370
    25
100
AcDbLine
 10
0.0
 20
24.0
 30
0.0
 11
12.1194273858
 21
24.0
 31
0.0
  0
LINE
  5
1D5
330
1A6
100
AcDbEntity
  8
0
  6
Continuous
 62
     7
370
    25
100
AcDbLine
 10
0.0
 20
24.0
 30
0.0
 11
0.5
 21
23.5
 31
0.0
  0
LINE
  5
1D6
330
1A6
100
AcDbEntity
  8
0
  6
Continuous
 62
     7
370
    25
100
AcDbLine
 10
0.0
 20
0.0
 30
0.0
 11
0.0
 21
24.0
 31
0.0
  0
LINE
  5
1D7
330
1A6
100
AcDbEntity
  8
0
  6
Continuous
 62
     7
370
    25
100
AcDbLine
 10
0.0
 20
0.0
 30
0.0
 11
0.5
 21
0.5
 31
0.0
  0
LINE
  5
1D8
330
1A6
100
AcDbEntity
  8
0
  6
Continuous
 62
     7
370
    25
100
AcDbLine
 10
12.1194273858
 20
0.0
 30
0.0
 11
0.0
 21
0.0
 31
0.0
  0
LINE
  5
1D9
330
1A6
100
AcDbEntity
  8
0
  6
Continuous
 62
     7
370
    25
100
AcDbLine
 10
12.5869280212
 20
0.5
 30
0.0
 11
12.5869280212
 21
23.5
 31
0.0
  0
LINE
  5
1DA
330
1A6
100
AcDbEntity
  8
0
  6
Continuous
 62
     7
370
    25
100
AcDbLine
 10
25.3
 20
2.0
 30
0.0
 11
12.6194273858
 21
2.0
 31
0.0
  0
LINE
  5
1DB
330
1A6
100
AcDbEntity
  8
0
  6
Continuous
 62
     7
370
    25
100
AcDbLine
 10
12.6194273858
 20
22.0
 30
0.0
 11
25.3
 21
22.0
 31
0.0
  0
LINE
  5
1DC
330
1A6
100
AcDbEntity
  8
0
  6
Continuous
 62
     8
370
    25
100
AcDbLine
 10
12.6194273858
 20
2.2
 30
0.0
 11
25.5
 21
2.2
 31
0.0
  0
LINE
  5
1DD
330
1A6
100
AcDbEntity
  8
0
  6
Continuous
 62
     8
370
    25
100
AcDbLine
 10
25.5
 20
21.8
 30
0.0
 11
12.6194273858
 21
21.8
 31
0.0
  0
ARC
  5
1DE
330
1A6
100
AcDbEntity
  8
0
  6
Continuous
 62
     7
370
    25
100
AcDbCircle
 10
12.1194273858
 20
0.5
 30
0.0
 40
0.5000000000000003
100
AcDbArc
 50
270.0
 51
0.0
  0
ARC
  5
1DF
330
1A6
100
AcDbEntity
  8
0
  6
Continuous
 62
     7
370
    25
100
AcDbCircle
 10
12.1194273858
 20
23.5
 30
0.0
 40
0.5000000000000018
100
AcDbArc
 50
0.0
 51
90.0
  0
ARC
  5
1E0
330
1A6
100
AcDbEntity
  8
0
  6
Continuous
 62
     7
370
    25
100
AcDbCircle
 10
25.3
 20
2.2
 30
0.0
 40
0.1999999999999944
100
AcDbArc
 50
270.0
 51
0.0
  0
ARC
  5
1E1
330
1A6
100
AcDbEntity
  8
0
  6
Continuous
 62
     7
370
    25
100
AcDbCircle
 10
25.3
 20
21.8
 30
0.0
 40
0.2000000000000028
100
AcDbArc
 50
360.0
 51
90.0
  0
ARC
  5
1E2
330
1A6
100
AcDbEntity
  8
0
  6
Continuous
 62
     7
370
    25
100
AcDbCircle
 10
3.5334985976
 20
0.499346134
 30
0.0
 40
0.4993465643560223
100
AcDbArc
 50
270.0752225941
 51
0.075025594
  0
ARC
  5
1E3
330
1A6
100
AcDbEntity
  8
0
  6
Continuous
 62
     7
370
    25
100
AcDbCircle
 10
3.5334985976
 20
23.500653866
 30
0.0
 40
0.4993465643560037
100
AcDbArc
 50
359.924974406
 51
89.9247774059
  0
ARC
  5
1E4
330
1A6
100
AcDbEntity
  8
0
  6
Continuous
 62
     7
370
    25
100
AcDbCircle
 10
12.1026128868
 20
0.484278422
 30
0.0
 40
0.4845702399392945
100
AcDbArc
 50
271.9885523064
 51
1.8592519665
  0
ARC
  5
1E5
330
1A6
100
AcDbEntity
  8
0
  6
Continuous
 62
     7
370
    25
100
AcDbCircle
 10
12.1026128868
 20
23.515721578
 30
0.0
 40
0.4845702399392902
100
AcDbArc
 50
358.1407480335
 51
88.0114476936
  0
VIEWPORT
  5
4F0
330
1A6
100
AcDbEntity
  8
0
100
AcDbViewport
 10
0.0
 20
0.0
 30
0.0
 40
205.6
 41
156.0
 68
     1
 69
     1
 12
-70.0
 22
12.75
 13
0.0
 23
0.0
 14
10.0
 24
10.0
 15
10.0
 25
10.0
 16
0.0
 26
0.0
 36
1.0
 17
0.0
 27
0.0
 37
0.0
 42
50.0
 43
0.0
 44
0.0
 45
173.360311284
 50
0.0
 51
0.0
 72
   100
 90
   557152
  1

281
     0
 71
     1
 74
     0
110
0.0
120
0.0
130
0.0
111
1.0
121
0.0
131
0.0
112
0.0
122
1.0
132
0.0
 79
     0
146
0.0
  0
ENDBLK
  5
1A9
330
1A6
100
AcDbEntity
  8
0
100
AcDbBlockEnd
  0
BLOCK
  5
1E8
330
1E6
100
AcDbEntity
  8
0
100
AcDbBlockBegin
  2
*Paper_Space3
 70
     0
 10
0.0
 20
0.0
 30
0.0
  3
*Paper_Space3
  1

  0
LINE
  5
20C
330
1E6
100
AcDbEntity
  8
0
  6
Continuous
 62
     7
370
    25
100
AcDbLine
 10
41.5
 20
-3.5341541805
 30
0.0
 11
41.5361625772
 21
-4.0328447339
 31
0.0
  0
LINE
  5
20D
330
1E6
100
AcDbEntity
  8
0
  6
Continuous
 62
     7
370
    25
100
AcDbLine
 10
42.0
 20
-3.5341541805
 30
0.0
 11
41.5
 21
-3.5341541805
 31
0.0
  0
LINE
  5
20E
330
1E6
100
AcDbEntity
  8
0
  6
Continuous
 62
     7
370
    25
100
AcDbLine
 10
2.8220175259
 20
-12.5869280212
 30
0.0
 11
2.6446953448
 21
-12.1194273858
 31
0.0
  0
LINE
  5
20F
330
1E6
100
AcDbEntity
  8
0
  6
Continuous
 62
     7
370
    25
100
AcDbLine
 10
0.5077133059
 20
0.0
 30
0.0
 11
2.6446953448
 21
-12.1194273858
 31
0.0
  0
LINE
  5
210
330
1E6
100
AcDbEntity
  8
0
  6
Continuous
 62
     7
370
    25
100
AcDbLine
 10
0.0
 20
0.0
 30
0.0
 11
41.5
 21
0.0
 31
0.0
  0
LINE
  5
211
330
1E6
100
AcDbEntity
  8
0
  6
Continuous
 62
     7
370
    25
100
AcDbLine
 10
41.5
 20
-3.5341541805
 30
0.0
 11
41.5
 21
0.0
 31
0.0
  0
LINE
  5
212
330
1E6
100
AcDbEntity
  8
0
  6
Continuous
 62
     7
370
    25
100
AcDbLine
 10
2.6446953448
 20
-12.1194273858
 30
0.0
 11
2.1522914683
 21
-12.2062514747
 31
0.0
  0
LINE
  5
213
330
1E6
100
AcDbEntity
  8
0
  6
Continuous
 62
     7
370
    25
100
AcDbLine
 10
2.1522914683
 20
-12.2062514747
 30
0.0
 11
0.0
 21
0.0
 31
0.0
  0
LINE
  5
214
330
1E6
100
AcDbEntity
  8
0
  6
Continuous
 62
     7
370
    25
100
AcDbLine
 10
42.0
 20
-0.5
 30
0.0
 11
42.0
 21
-3.5341541805
 31
0.0
  0
LINE
  5
215
330
1E6
100
AcDbEntity
  8
0
  6
Continuous
 62
     7
370
    25
100
AcDbLine
 10
-142.6446953448
 20
-12.1194273858
 30
0.0
 11
-142.1522914683
 21
-12.2062514747
 31
0.0
  0
LINE
  5
216
330
1E6
100
AcDbEntity
  8
0
  6
Continuous
 62
     7
370
    25
100
AcDbLine
 10
-142.6446953448
 20
-12.1194273858
 30
0.0
 11
-142.8220175259
 21
-12.5869280212
 31
0.0
  0
LINE
  5
217
330
1E6
100
AcDbEntity
  8
0
  6
Continuous
 62
     7
370
    25
100
AcDbLine
 10
-142.6446953448
 20
-12.1194273858
 30
0.0
 11
-140.5090527075
 21
-0.0075961235
 31
0.0
  0
LINE
  5
218
330
1E6
100
AcDbEntity
  8
0
  6
Continuous
 62
     7
370
    25
100
AcDbLine
 10
-140.1034729198
 20
-0.5868240888
 30
0.0
 11
-142.1522914683
 21
-12.2062514747
 31
0.0
  0
LINE
  5
219
330
1E6
100
AcDbEntity
  8
0
  6
Continuous
 62
     7
370
    25
100
AcDbLine
 10
-181.5
 20
0.0
 30
0.0
 11
-181.5
 21
-3.5341541805
 31
0.0
  0
LINE
  5
21A
330
1E6
100
AcDbEntity
  8
0
  6
Continuous
 62
     7
370
    25
100
AcDbLine
 10
-140.5958767963
 20
0.0
 30
0.0
 11
-182.0
 21
0.0
 31
0.0
  0
LINE
  5
21B
330
1E6
100
AcDbEntity
  8
0
  6
Continuous
 62
     7
370
    25
100
AcDbLine
 10
-181.5
 20
-3.5341541805
 30
0.0
 11
-181.5361625772
 21
-4.0328447339
 31
0.0
  0
LINE
  5
21C
330
1E6
100
AcDbEntity
  8
0
  6
Continuous
 62
     7
370
    25
100
AcDbLine
 10
-181.5
 20
-3.5341541805
 30
0.0
 11
-182.0
 21
-3.5341541805
 31
0.0
  0
LINE
  5
21D
330
1E6
100
AcDbEntity
  8
0
  6
Continuous
 62
     7
370
    25
100
AcDbLine
 10
-182.0
 20
-3.5341541805
 30
0.0
 11
-182.0
 21
0.0
 31
0.0
  0
ARC
  5
21E
330
1E6
100
AcDbEntity
  8
0
  6
Continuous
 62
     7
370
    25
100
AcDbCircle
 10
41.5
 20
-3.5341541805
 30
0.0
 40
0.500000000000016
100
AcDbArc
 50
274.1475473957
 51
0.0
  0
ARC
  5
21F
330
1E6
100
AcDbEntity
  8
0
  6
Continuous
 62
     7
370
    25
100
AcDbCircle
 10
51.4540372475
 20
-140.8026987624
 30
0.0
 40
137.1289801936857
100
AcDbArc
 50
94.1475473957
 51
110.7716497419
  0
ARC
  5
220
330
1E6
100
AcDbEntity
  8
0
  6
Continuous
 62
     7
370
    25
100
AcDbCircle
 10
51.4540372475
 20
-140.8026987624
 30
0.0
 40
137.628980193686
100
AcDbArc
 50
94.1475473957
 51
110.7716497419
  0
ARC
  5
221
330
1E6
100
AcDbEntity
  8
0
  6
Continuous
 62
     7
370
    25
100
AcDbCircle
 10
2.6446953448
 20
-12.1194273858
 30
0.0
 40
0.5000000000000051
100
AcDbArc
 50
190.0
 51
290.7716497419
  0
ARC
  5
222
330
1E6
100
AcDbEntity
  8
0
  6
Continuous
 62
     7
370
    25
100
AcDbCircle
 10
41.5
 20
-0.5
 30
0.0
 40
0.5000000000000071
100
AcDbArc
 50
0.0
 51
90.0
  0
ARC
  5
223
330
1E6
100
AcDbEntity
  8
0
  6
Continuous
 62
     7
370
    25
100
AcDbCircle
 10
-142.6446953448
 20
-12.1194273858
 30
0.0
 40
0.5000000000000253
100
AcDbArc
 50
249.2283502581
 51
350.0
  0
ARC
  5
224
330
1E6
100
AcDbEntity
  8
0
  6
Continuous
 62
     7
370
    25
100
AcDbCircle
 10
-140.5958767963
 20
-0.5
 30
0.0
 40
0.5000000000021964
100
AcDbArc
 50
350.0
 51
90.0
  0
ARC
  5
225
330
1E6
100
AcDbEntity
  8
0
  6
Continuous
 62
     7
370
    25
100
AcDbCircle
 10
-191.4540372475
 20
-140.8026987624
 30
0.0
 40
137.6289801936838
100
AcDbArc
 50
69.2283502581
 51
85.8524526043
  0
ARC
  5
226
330
1E6
100
AcDbEntity
  8
0
  6
Continuous
 62
     7
370
    25
100
AcDbCircle
 10
-181.5
 20
-3.5341541805
 30
0.0
 40
0.5000000000000703
100
AcDbArc
 50
180.0
 51
265.8524526043
  0
ARC
  5
227
330
1E6
100
AcDbEntity
  8
0
  6
Continuous
 62
     7
370
    25
100
AcDbCircle
 10
-191.4540372475
 20
-140.8026987624
 30
0.0
 40
137.1289801936853
100
AcDbArc
 50
69.2283502581
 51
85.8524526043
  0
ARC
  5
228
330
1E6
100
AcDbEntity
  8
0
  6
Continuous
 62
     7
370
    25
100
AcDbCircle
 10
-70.0
 20
159.088461373
 30
0.0
 40
184.5884613730218
100
AcDbArc
 50
247.0676048875
 51
292.9323951125
  0
ARC
  5
229
330
1E6
100
AcDbEntity
  8
0
  6
Continuous
 62
     7
370
    25
100
AcDbCircle
 10
-70.0
 20
159.088461373
 30
0.0
 40
184.3884613730209
100
AcDbArc
 50
247.0533339723
 51
292.9466660277
  0
ARC
  5
22A
330
1E6
100
AcDbEntity
  8
0
  6
Continuous
 62
     7
370
    25
100
AcDbCircle
 10
-70.0
 20
159.088461373
 30
0.0
 40
181.5884613730194
100
AcDbArc
 50
246.8501513493
 51
293.1498486507
  0
VIEWPORT
  5
4F2
330
1E6
100
AcDbEntity
  8
0
100
AcDbViewport
 10
0.0
 20
0.0
 30
0.0
 40
205.6
 41
156.0
 68
     1
 69
     1
 12
-70.0
 22
12.75
 13
0.0
 23
0.0
 14
10.0
 24
10.0
 15
10.0
 25
10.0
 16
0.0
 26
0.0
 36
1.0
 17
0.0
 27
0.0
 37
0.0
 42
50.0
 43
0.0
 44
0.0
 45
173.360311284
 50
0.0
 51
0.0
 72
   100
 90
   557152
  1

281
     0
 71
     1
 74
     0
110
0.0
120
0.0
130
0.0
111
1.0
121
0.0
131
0.0
112
0.0
122
1.0
132
0.0
 79
     0
146
0.0
  0
ENDBLK
  5
1E9
330
1E6
100
AcDbEntity
  8
0
100
AcDbBlockEnd
  0
BLOCK
  5
22D
330
22B
100
AcDbEntity
  8
0
100
AcDbBlockBegin
  2
*Paper_Space4
 70
     0
 10
0.0
 20
0.0
 30
0.0
  3
*Paper_Space4
  1

  0
SPLINE
  5
230
330
22B
100
AcDbEntity
  8
0
  6
Continuous
 62
     7
370
    25
100
AcDbSpline
210
0.0
220
0.0
230
1.0
 70
     8
 71
     3
 72
    17
 73
    13
 74
     0
 42
0.000000001
 43
0.00000001
 40
0.0
 40
0.0
 40
0.0
 40
0.0
 40
0.0577884305042026
 40
0.1676410096389158
 40
0.2774962339160386
 40
0.387353331796785
 40
0.4972139306789273
 40
0.6070799581461191
 40
0.7169536607784912
 40
0.826837613161217
 40
0.9367347120237851
 40
1.0
 40
1.0
 40
1.0
 40
1.0
 10
32.12156239649961
 20
4.106750867734682
 30
0.0
 10
31.62365586085654
 20
4.442551288260835
 30
0.0
 10
30.17925680705376
 20
5.416689555090587
 30
0.0
 10
27.86998531386743
 20
7.06847307147674
 30
0.0
 10
25.23218333067107
 20
9.076645027764778
 30
0.0
 10
22.70851418942246
 20
11.13262631511054
 30
0.0
 10
20.29968109168645
 20
13.23337573281121
 30
0.0
 10
18.00874477867473
 20
15.37703042511928
 30
0.0
 10
15.83724116328348
 20
17.56118765472528
 30
0.0
 10
13.7896914342607
 20
19.78422058950307
 30
0.0
 10
12.13255860628198
 20
21.72232692225094
 30
0.0
 10
11.18159079164496
 20
22.92451232890085
 30
0.0
 10
10.83415244924595
 20
23.36373361327434
 30
0.0
  0
SPLINE
  5
23A
330
22B
100
AcDbEntity
  8
0
  6
Continuous
 62
     7
370
    25
100
AcDbSpline
210
0.0
220
0.0
230
1.0
 70
     8
 71
     3
 72
    17
 73
    13
 74
     0
 42
0.000000001
 43
0.00000001
 40
0.0
 40
0.0
 40
0.0
 40
0.0
 40
0.0577822700277989
 40
0.1676120053498218
 40
0.2774418279100341
 40
0.3872682680636549
 40
0.4970912017909164
 40
0.6069105393290486
 40
0.7167262331717963
 40
0.8265382879419197
 40
0.936346772078306
 40
1.0
 40
1.0
 40
1.0
 40
1.0
 10
-92.16958180889418
 20
82.84798805825966
 30
0.0
 10
-92.86750314789518
 20
83.03175573372289
 30
0.0
 10
-94.89199950551685
 20
83.56482009045467
 30
0.0
 10
-98.19802973845859
 20
84.50287747414338
 30
0.0
 10
-102.0635333722933
 20
85.684789658721
 30
0.0
 10
-105.8607244377466
 20
86.93808445411786
 30
0.0
 10
-109.5866888559303
 20
88.26016569720822
 30
0.0
 10
-113.2372508663256
 20
89.65008432122981
 30
0.0
 10
-116.8092132835102
 20
91.10601753080562
 30
0.0
 10
-120.297234210035
 20
92.62758073701534
 30
0.0
 10
-123.2267750905309
 20
93.9875310072118
 30
0.0
 10
-124.9757326166522
 20
94.85092422672675
 30
0.0
 10
-125.6175272277782
 20
95.16775359924802
 30
0.0
  0
SPLINE
  5
244
330
22B
100
AcDbEntity
  8
0
  6
Continuous
 62
     7
370
    25
100
AcDbSpline
210
0.0
220
0.0
230
1.0
 70
     8
 71
     3
 72
    20
 73
    16
 74
     0
 42
0.000000001
 43
0.00000001
 40
0.0
 40
0.0
 40
0.0
 40
0.0
 40
0.0753810102163222
 40
0.1577322847524243
 40
0.240087969570024
 40
0.322447495314497
 40
0.4048103091477718
 40
0.4871758866505226
 40
0.5695437400427542
 40
0.6519134232659491
 40
0.7342845345027176
 40
0.8166567166910271
 40
0.8990296565382344
 40
0.9814030824716198
 40
1.0
 40
1.0
 40
1.0
 40
1.0
 10
8.221187300787456
 20
22.69882215392083
 30
0.0
 10
7.61329554925412
 20
23.52250156938112
 30
0.0
 10
6.341302051470709
 20
25.24602365712253
 30
0.0
 10
4.247334298418441
 20
27.82882265431353
 30
0.0
 10
1.978076707411416
 20
30.45418143978927
 30
0.0
 10
-0.4183419007633485
 20
33.04165673087888
 30
0.0
 10
-2.936260154744352
 20
35.59022315386294
 30
0.0
 10
-5.5747787647209
 20
38.09770141890698
 30
0.0
 10
-8.331672483417554
 20
40.5622276121143
 30
0.0
 10
-11.2047081526016
 20
42.98202670320538
 30
0.0
 10
-14.19247209192491
 20
45.35485752919376
 30
0.0
 10
-17.28975352123041
 20
47.68046733767492
 30
0.0
 10
-20.50519506743085
 20
49.95133597868859
 30
0.0
 10
-22.94620271558342
 20
51.61020674490016
 30
0.0
 10
-24.34693486683286
 20
52.49450095064599
 30
0.0
 10
-24.60492448440804
 20
52.65737200615852
 30
0.0
  0
LWPOLYLINE
  5
248
330
22B
100
AcDbEntity
  8
0
  6
Continuous
 62
     7
370
    25
100
AcDbPolyline
 90
       10
 70
   128
 43
0.0
 10
29.3449314192
 20
2.6565111649
 10
29.4116965917
 20
2.6179674433
 10
29.487175679
 20
2.5743913003
 10
29.5690752873
 20
2.527106775
 10
29.6549069385
 20
2.4775505837
 10
29.7420626812
 20
2.4272284663
 10
29.8278943324
 20
2.3776694348
 10
29.9097939407
 20
2.3303793153
 10
29.985273028
 20
2.2867949942
 10
30.0520382004
 20
2.248240759
  0
LWPOLYLINE
  5
24B
330
22B
100
AcDbEntity
  8
0
  6
Continuous
 62
     7
370
    25
100
AcDbPolyline
 90
       10
 70
   128
 43
0.0
 10
29.3449314192
 20
-16.9404683203
 10
29.4116965917
 20
-16.9666069523
 10
29.487175679
 20
-16.9733447486
 10
29.5690752873
 20
-16.9604769847
 10
29.6549069385
 20
-16.9283946412
 10
29.7420626812
 20
-16.8780725238
 10
29.8278943324
 20
-16.8110396445
 10
29.9097939407
 20
-16.7293327636
 10
29.985273028
 20
-16.6354345032
 10
30.0520382004
 20
-16.5321979144
  0
SPLINE
  5
25B
330
22B
100
AcDbEntity
  8
0
  6
Continuous
 62
     7
370
    25
100
AcDbSpline
210
0.0
220
0.0
230
1.0
 70
     8
 71
     3
 72
    11
 73
     7
 74
     0
 42
0.000000001
 43
0.00000001
 40
0.0
 40
0.0
 40
0.0
 40
0.0
 40
0.3256383013653443
 40
0.6510923393139186
 40
0.981785070574539
 40
0.9999999999999999
 40
0.9999999999999999
 40
0.9999999999999999
 40
0.9999999999999999
 10
14.20822283179059
 20
7.387416740299732
 30
0.0
 10
14.19279529309522
 20
7.672127317689549
 30
0.0
 10
14.16194894542387
 20
8.24138736812869
 30
0.0
 10
13.91221159055733
 20
9.197525467644018
 30
0.0
 10
13.684687570355
 20
9.865902930220667
 30
0.0
 10
13.53294330998096
 20
10.14167248326749
 30
0.0
 10
13.52502141171139
 20
10.15606919481163
 30
0.0
  0
SPLINE
  5
25C
330
22B
100
AcDbEntity
  8
0
  6
Continuous
 62
     7
370
    25
100
AcDbSpline
210
0.0
220
0.0
230
1.0
 70
     8
 71
     3
 72
    10
 73
     6
 74
     0
 42
0.000000001
 43
0.00000001
 40
0.0
 40
0.0
 40
0.0
 40
0.0
 40
0.3162153597505823
 40
0.7471247777599834
 40
0.9999999999999999
 40
0.9999999999999999
 40
0.9999999999999999
 40
0.9999999999999999
 10
13.75354958032993
 20
6.154353978821046
 30
0.0
 10
13.83951621808396
 20
6.206596329014976
 30
0.0
 10
14.04263033998305
 20
6.330029783699439
 30
0.0
 10
14.18461142448491
 20
6.810261035479839
 30
0.0
 10
14.2018483301076
 20
7.231598835670483
 30
0.0
 10
14.20822283179059
 20
7.387416740299732
 30
0.0
  0
SPLINE
  5
25D
330
22B
100
AcDbEntity
  8
0
  6
Continuous
 62
     7
370
    25
100
AcDbSpline
210
0.0
220
0.0
230
1.0
 70
     8
 71
     3
 72
    14
 73
    10
 74
     0
 42
0.000000001
 43
0.00000001
 40
0.0
 40
0.0
 40
0.0
 40
0.0
 40
0.1402964672821413
 40
0.2805670910386982
 40
0.4215894873070684
 40
0.5644001377276173
 40
0.7092658254999381
 40
0.8556446932493403
 40
0.9999999999999999
 40
0.9999999999999999
 40
0.9999999999999999
 40
0.9999999999999999
 10
22.97927540546957
 20
-0.6116921760224505
 30
0.0
 10
22.96002110604814
 20
-0.3235801845528352
 30
0.0
 10
22.921516053973
 20
0.2525907262758351
 30
0.0
 10
22.62264049799387
 20
1.220191637730857
 30
0.0
 10
22.18461259231262
 20
2.13376762209664
 30
0.0
 10
21.63640531700381
 20
2.913785219173903
 30
0.0
 10
21.04608334995917
 20
3.460812449096566
 30
0.0
 10
20.4693559659334
 20
3.736028166794025
 30
0.0
 10
20.16969971160593
 20
3.638991007671864
 30
0.0
 10
20.02091441456413
 20
3.590810125959631
 30
0.0
  0
SPLINE
  5
25E
330
22B
100
AcDbEntity
  8
0
  6
Continuous
 62
     7
370
    25
100
AcDbSpline
210
0.0
220
0.0
230
1.0
 70
     8
 71
     3
 72
    10
 73
     6
 74
     0
 42
0.000000001
 43
0.00000001
 40
0.0
 40
0.0
 40
0.0
 40
0.0
 40
0.3059196472967037
 40
0.7353245497746128
 40
1.0
 40
1.0
 40
1.0
 40
1.0
 10
22.44558440838895
 20
-1.892465114349339
 30
0.0
 10
22.54416256175487
 20
-1.832867939992149
 30
0.0
 10
22.78111019451384
 20
-1.689617038033775
 30
0.0
 10
22.94993192346473
 20
-1.200840179960146
 30
0.0
 10
22.97117480332762
 20
-0.7743331871279611
 30
0.0
 10
22.97927540546957
 20
-0.6116921760224505
 30
0.0
  0
LWPOLYLINE
  5
25F
330
22B
100
AcDbEntity
  8
0
  6
Continuous
 62
     7
370
    25
100
AcDbPolyline
 90
       28
 70
   128
 43
0.0
 10
20.5060966544
 20
-2.0394278788
 10
20.44891619
 20
-1.4414964883
 10
20.2804574104
 20
-0.809780575
 10
20.0098019721
 20
-0.1783361071
 10
19.6515409798
 20
0.4187955806
 10
19.2249883762
 20
0.9494229642
 10
18.7531397228
 20
1.3849397842
 10
18.2614325024
 20
1.7018672161
 10
17.7763747787
 20
1.8831196199
 10
17.3241161391
 20
1.9189256318
 10
16.9290379638
 20
1.8073549402
 10
16.6124390197
 20
1.5544223501
 10
16.3913872377
 20
1.1737635228
 10
16.2777995766
 20
0.6858998743
 10
16.2777995766
 20
0.1171322602
 10
16.3913872377
 20
-0.5018769103
 10
16.6124390197
 20
-1.1377566925
 10
16.9290379638
 20
-1.7562266428
 10
17.3241161391
 20
-2.3239448862
 10
17.7763747787
 20
-2.810305585
 10
18.2614325024
 20
-3.1890889083
 10
18.7531397228
 20
-3.4398745489
 10
19.2249883762
 20
-3.5491425881
 10
19.6515409798
 20
-3.5110023577
 10
20.0098019721
 20
-3.3275100072
 10
20.2804574104
 20
-3.0085576568
 10
20.44891619
 20
-2.5713401103
 10
20.5060966544
 20
-2.0394278788
  0
LWPOLYLINE
  5
260
330
22B
100
AcDbEntity
  8
0
  6
Continuous
 62
     7
370
    25
100
AcDbPolyline
 90
       22
 70
   128
 43
0.0
 10
19.6222131779
 20
-1.5291728089
 10
19.5672373299
 20
-1.0762465759
 10
19.4071946312
 20
-0.6000910633
 10
19.1563055779
 20
-0.1430147779
 10
18.8368627635
 20
0.2543690464
 10
18.4772500837
 20
0.5567511129
 10
18.1094207035
 20
0.7372634482
 10
17.7660578773
 20
0.7798667389
 10
17.4776708992
 20
0.6807754958
 10
17.2698842176
 20
0.4487944107
 10
17.1611605912
 20
0.104536021
 10
17.1611605912
 20
-0.3214108046
 10
17.2698842176
 20
-0.7911988214
 10
17.4776708992
 20
-1.2630853025
 10
17.7660578773
 20
-1.6951410632
 10
18.1094207035
 20
-2.0489760531
 10
18.4772500837
 20
-2.2931504806
 10
18.8368627635
 20
-2.4059683763
 10
19.1563055779
 20
-2.377405375
 10
19.4071946312
 20
-2.2099994247
 10
19.5672373299
 20
-1.9186252789
 10
19.6222131779
 20
-1.5291728089
  0
LWPOLYLINE
  5
262
330
22B
100
AcDbEntity
  8
0
  6
Continuous
 62
     7
370
    25
100
AcDbPolyline
 90
       28
 70
   128
 43
0.0
 10
9.1923881554
 20
4.4918370158
 10
9.135207691
 20
5.0897684062
 10
8.9667489115
 20
5.7214843196
 10
8.6960934731
 20
6.3529287875
 10
8.3378324808
 20
6.9500604752
 10
7.9112798772
 20
7.4806878588
 10
7.4394312238
 20
7.9162046788
 10
6.9477240034
 20
8.2331321107
 10
6.4626662797
 20
8.4143845145
 10
6.0104076401
 20
8.4501905263
 10
5.6153294649
 20
8.3386198348
 10
5.2987305207
 20
8.0856872446
 10
5.0776787387
 20
7.7050284174
 10
4.9640910776
 20
7.2171647689
 10
4.9640910776
 20
6.6483971548
 10
5.0776787387
 20
6.0293879843
 10
5.2987305207
 20
5.3935082021
 10
5.6153294649
 20
4.7750382518
 10
6.0104076401
 20
4.2073200084
 10
6.4626662797
 20
3.7209593095
 10
6.9477240034
 20
3.3421759863
 10
7.4394312238
 20
3.0913903457
 10
7.9112798772
 20
2.9821223064
 10
8.3378324808
 20
3.0202625369
 10
8.6960934731
 20
3.2037548874
 10
8.9667489115
 20
3.5227072378
 10
9.135207691
 20
3.9599247843
 10
9.1923881554
 20
4.4918370158
  0
LWPOLYLINE
  5
263
330
22B
100
AcDbEntity
  8
0
  6
Continuous
 62
     7
370
    25
100
AcDbPolyline
 90
       22
 70
   128
 43
0.0
 10
8.3085046789
 20
5.0020920857
 10
8.2535288309
 20
5.4550183187
 10
8.0934861322
 20
5.9311738313
 10
7.8425970789
 20
6.3882501167
 10
7.5231542645
 20
6.785633941
 10
7.1635415847
 20
7.0880160075
 10
6.7957122045
 20
7.2685283428
 10
6.4523493783
 20
7.3111316335
 10
6.1639624002
 20
7.2120403904
 10
5.9561757186
 20
6.9800593053
 10
5.8474520922
 20
6.6358009156
 10
5.8474520922
 20
6.20985409
 10
5.9561757186
 20
5.7400660732
 10
6.1639624002
 20
5.2681795921
 10
6.4523493783
 20
4.8361238314
 10
6.7957122045
 20
4.4822888415
 10
7.1635415847
 20
4.2381144139
 10
7.5231542645
 20
4.1252965183
 10
7.8425970789
 20
4.1538595196
 10
8.0934861322
 20
4.3212654698
 10
8.2535288309
 20
4.6126396157
 10
8.3085046789
 20
5.0020920857
  0
LWPOLYLINE
  5
266
330
22B
100
AcDbEntity
  8
0
  6
Continuous
 62
     7
370
    25
100
AcDbPolyline
 90
       10
 70
   128
 43
0.0
 10
-99.3495327171
 20
57.3594659759
 10
-99.2740536298
 20
57.3405115511
 10
-99.1921540215
 20
57.3417223437
 10
-99.1063223703
 20
57.3630615644
 10
-99.0191666276
 20
57.4038808318
 10
-98.9333349764
 20
57.4629398731
 10
-98.8514353681
 20
57.5384442092
 10
-98.7759562808
 20
57.6280996791
 10
-98.7091911083
 20
57.7291821466
 10
-98.6531684768
 20
57.8386202722
  0
SPLINE
  5
27A
330
22B
100
AcDbEntity
  8
0
  6
Continuous
 62
     7
370
    25
100
AcDbSpline
210
0.0
220
0.0
230
1.0
 70
     8
 71
     3
 72
     9
 73
     5
 74
     0
 42
0.000000001
 43
0.00000001
 40
0.0
 40
0.0
 40
0.0
 40
0.0
 40
0.9141929105090775
 40
1.0
 40
1.0
 40
1.0
 40
1.0
 10
-102.3446645577419
 20
76.597150225039
 30
0.0
 10
-102.2321660580591
 20
76.68764750038184
 30
0.0
 10
-102.1091083331638
 20
76.78663894332847
 30
0.0
 10
-101.9361339349217
 20
76.80060837139322
 30
0.0
 10
-101.921291505252
 20
76.8018070473573
 30
0.0
  0
SPLINE
  5
27B
330
22B
100
AcDbEntity
  8
0
  6
Continuous
 62
     7
370
    25
100
AcDbSpline
210
0.0
220
0.0
230
1.0
 70
     8
 71
     3
 72
    17
 73
    13
 74
     0
 42
0.000000001
 43
0.00000001
 40
0.0
 40
0.0
 40
0.0
 40
0.0
 40
0.0681500442145229
 40
0.1753821063005362
 40
0.2841572318222648
 40
0.3940685569815637
 40
0.5040547107711254
 40
0.6127738024807345
 40
0.7193811795816173
 40
0.8241601736587773
 40
0.9284059941938911
 40
1.0
 40
1.0
 40
1.0
 40
1.0
 10
-116.2812286414893
 20
81.6145943681096
 30
0.0
 10
-116.1564085260784
 20
81.68852073248883
 30
0.0
 10
-115.8351876816646
 20
81.87876802646205
 30
0.0
 10
-115.1246899176584
 20
81.85915994992934
 30
0.0
 10
-114.2699677032952
 20
81.58135432449593
 30
0.0
 10
-113.4248513958148
 20
81.01931934605564
 30
0.0
 10
-112.7032903248107
 20
80.24880654185988
 30
0.0
 10
-112.195551517257
 20
79.36029416108008
 30
0.0
 10
-111.959479668405
 20
78.46020207435912
 30
0.0
 10
-112.0222374943386
 20
77.66246421547737
 30
0.0
 10
-112.299941405891
 20
77.07159569213744
 30
0.0
 10
-112.6319157816411
 20
76.87875345344332
 30
0.0
 10
-112.7670806978007
 20
76.80023683611039
 30
0.0
  0
LWPOLYLINE
  5
27C
330
22B
100
AcDbEntity
  8
0
  6
Continuous
 62
     7
370
    25
100
AcDbPolyline
 90
       28
 70
   128
 43
0.0
 10
-108.1873375215
 20
72.2537102971
 10
-108.1301570571
 20
72.7856225286
 10
-107.9616982776
 20
73.2228400751
 10
-107.6910428392
 20
73.5417924255
 10
-107.3327818469
 20
73.7252847759
 10
-106.9062292434
 20
73.7634250064
 10
-106.4343805899
 20
73.6541569672
 10
-105.9426733695
 20
73.4033713266
 10
-105.4576156458
 20
73.0245880033
 10
-105.0053570062
 20
72.5382273044
 10
-104.610278831
 20
71.9705090611
 10
-104.2936798868
 20
71.3520391108
 10
-104.0726281048
 20
70.7161593285
 10
-103.9590404437
 20
70.097150158
 10
-103.9590404437
 20
69.5283825439
 10
-104.0726281048
 20
69.0405188955
 10
-104.2936798868
 20
68.6598600682
 10
-104.610278831
 20
68.4069274781
 10
-105.0053570062
 20
68.2953567865
 10
-105.4576156458
 20
68.3311627983
 10
-105.9426733695
 20
68.5124152022
 10
-106.4343805899
 20
68.829342634
 10
-106.9062292434
 20
69.264859454
 10
-107.3327818469
 20
69.7954868377
 10
-107.6910428392
 20
70.3926185254
 10
-107.9616982776
 20
71.0240629932
 10
-108.1301570571
 20
71.6557789066
 10
-108.1873375215
 20
72.2537102971
  0
LWPOLYLINE
  5
27D
330
22B
100
AcDbEntity
  8
0
  6
Continuous
 62
     7
370
    25
100
AcDbPolyline
 90
       22
 70
   128
 43
0.0
 10
-107.3034540451
 20
71.7434552272
 10
-107.248478197
 20
72.1329076971
 10
-107.0884354983
 20
72.424281843
 10
-106.837546445
 20
72.5916877933
 10
-106.5181036306
 20
72.6202507946
 10
-106.1584909509
 20
72.5074328989
 10
-105.7906615706
 20
72.2632584714
 10
-105.4472987444
 20
71.9094234815
 10
-105.1589117663
 20
71.4773677208
 10
-104.9511250848
 20
71.0054812397
 10
-104.8424014583
 20
70.5356932229
 10
-104.8424014583
 20
70.1097463973
 10
-104.9511250848
 20
69.7654880076
 10
-105.1589117663
 20
69.5335069224
 10
-105.4472987444
 20
69.4344156794
 10
-105.7906615706
 20
69.4770189701
 10
-106.1584909509
 20
69.6575313053
 10
-106.5181036306
 20
69.9599133719
 10
-106.837546445
 20
70.3572971962
 10
-107.0884354983
 20
70.8143734815
 10
-107.248478197
 20
71.2905289942
 10
-107.3034540451
 20
71.7434552272
  0
LWPOLYLINE
  5
27F
330
22B
100
AcDbEntity
  8
0
  6
Continuous
 62
     7
370
    25
100
AcDbPolyline
 90
       28
 70
   128
 43
0.0
 10
-119.5010460205
 20
78.7849751916
 10
-119.4438655561
 20
79.3168874232
 10
-119.2754067766
 20
79.7541049697
 10
-119.0047513382
 20
80.07305732
 10
-118.6464903459
 20
80.2565496705
 10
-118.2199377423
 20
80.294689901
 10
-117.7480890889
 20
80.1854218618
 10
-117.2563818685
 20
79.9346362211
 10
-116.7713241448
 20
79.5558528979
 10
-116.3190655052
 20
79.069492199
 10
-115.92398733
 20
78.5017739557
 10
-115.6073883858
 20
77.8833040053
 10
-115.3863366038
 20
77.2474242231
 10
-115.2727489427
 20
76.6284150526
 10
-115.2727489427
 20
76.0596474385
 10
-115.3863366038
 20
75.57178379
 10
-115.6073883858
 20
75.1911249628
 10
-115.92398733
 20
74.9381923727
 10
-116.3190655052
 20
74.8266216811
 10
-116.7713241448
 20
74.8624276929
 10
-117.2563818685
 20
75.0436800967
 10
-117.7480890889
 20
75.3606075286
 10
-118.2199377423
 20
75.7961243486
 10
-118.6464903459
 20
76.3267517322
 10
-119.0047513382
 20
76.9238834199
 10
-119.2754067766
 20
77.5553278878
 10
-119.4438655561
 20
78.1870438012
 10
-119.5010460205
 20
78.7849751916
  0
LWPOLYLINE
  5
280
330
22B
100
AcDbEntity
  8
0
  6
Continuous
 62
     7
370
    25
100
AcDbPolyline
 90
       22
 70
   128
 43
0.0
 10
-118.617162544
 20
78.2747201218
 10
-118.562186696
 20
78.6641725917
 10
-118.4021439973
 20
78.9555467376
 10
-118.151254944
 20
79.1229526878
 10
-117.8318121296
 20
79.1515156891
 10
-117.4721994499
 20
79.0386977935
 10
-117.1043700696
 20
78.794523366
 10
-116.7610072434
 20
78.4406883761
 10
-116.4726202653
 20
78.0086326153
 10
-116.2648335837
 20
77.5367461342
 10
-116.1561099573
 20
77.0669581174
 10
-116.1561099573
 20
76.6410112918
 10
-116.2648335837
 20
76.2967529021
 10
-116.4726202653
 20
76.064771817
 10
-116.7610072434
 20
75.9656805739
 10
-117.1043700696
 20
76.0082838647
 10
-117.4721994499
 20
76.1887961999
 10
-117.8318121296
 20
76.4911782665
 10
-118.151254944
 20
76.8885620908
 10
-118.4021439973
 20
77.3456383761
 10
-118.562186696
 20
77.8217938887
 10
-118.617162544
 20
78.2747201218
  0
LWPOLYLINE
  5
281
330
22B
100
AcDbEntity
  8
0
  6
Continuous
 62
     7
370
    25
100
AcDbPolyline
 90
       28
 70
   128
 43
0.0
 10
-94.4063378753
 20
78.8955569651
 10
-89.3930326385
 20
77.6844722403
 10
-84.4447507902
 20
76.3873248032
 10
-79.5659243894
 20
75.0052764782
 10
-74.7609232853
 20
73.5395651332
 10
-70.0340512036
 20
71.9915035711
 10
-65.3895418916
 20
70.362478354
 10
-60.8315553265
 20
68.6539485612
 10
-56.3641739888
 20
66.8674444824
 10
-51.9913992062
 20
65.004566247
 10
-47.7171475695
 20
63.0669823909
 10
-43.5452474247
 20
61.0564283621
 10
-39.4794354439
 20
58.9747049662
 10
-35.5233532787
 20
56.8236767535
 10
-31.6805442982
 20
54.6052703492
 10
-27.9544504154
 20
52.3214727272
 10
-24.3484090043
 20
49.9743294311
 10
-20.8656499108
 20
47.5659427414
 10
-17.5092925598
 20
45.0984697932
 10
-14.2823431611
 20
42.5741206435
 10
-11.1876920167
 20
39.995156292
 10
-8.2281109326
 20
37.3638866561
 10
-5.4062507354
 20
34.6826685017
 10
-2.7246388983
 20
31.9539033323
 10
-0.1856772777
 20
29.1800352383
 10
2.2083600386
 20
26.3635487077
 10
4.4553287682
 20
23.5069664008
 10
5.7778040597
 20
21.7111548293
  0
LWPOLYLINE
  5
283
330
22B
100
AcDbEntity
  8
0
  6
Continuous
 62
     7
370
    25
100
AcDbPolyline
 90
       17
 70
   128
 43
0.0
 10
-24.7066091018
 20
52.658845795
 10
-25.9367184675
 20
53.4429506718
 10
-29.6881074433
 20
55.7410423635
 10
-33.5559252691
 20
57.973886067
 10
-37.5367681722
 20
60.1395168259
 10
-41.6271329152
 20
62.2360288334
 10
-45.8234198787
 20
64.2615771083
 10
-50.1219362294
 20
66.2143791195
 10
-54.5188991695
 20
68.0927163542
 10
-59.0104392659
 20
69.8949358307
 10
-63.5926038554
 20
71.6194515523
 10
-68.261360523
 20
73.2647459038
 10
-73.0126006505
 20
74.8293709867
 10
-77.8421430325
 20
76.3119498932
 10
-82.7457375555
 20
77.7111779182
 10
-87.7190689385
 20
79.0258237075
 10
-92.7577605303
 20
80.2547303412
  0
LWPOLYLINE
  5
285
330
22B
100
AcDbEntity
  8
0
  6
Continuous
 62
     7
370
    25
100
AcDbPolyline
 90
       26
 70
   128
 43
0.0
 10
-94.4063378753
 20
62.5647407273
 10
-89.3930326385
 20
61.3536560025
 10
-84.4447507902
 20
60.0565085655
 10
-79.5659243894
 20
58.6744602405
 10
-74.7609232853
 20
57.2087488955
 10
-70.0340512036
 20
55.6606873334
 10
-65.3895418916
 20
54.0316621163
 10
-60.8315553265
 20
52.3231323235
 10
-56.3641739888
 20
50.5366282447
 10
-51.9913992062
 20
48.6737500093
 10
-47.7171475695
 20
46.7361661532
 10
-43.5452474247
 20
44.7256121244
 10
-39.4794354439
 20
42.6438887285
 10
-35.5233532787
 20
40.4928605158
 10
-31.6805442982
 20
38.2744541115
 10
-27.9544504154
 20
35.9906564895
 10
-24.3484090043
 20
33.6435131934
 10
-20.8656499108
 20
31.2351265037
 10
-17.5092925598
 20
28.7676535555
 10
-14.2823431611
 20
26.2433044058
 10
-11.1876920167
 20
23.6643400543
 10
-8.2281109326
 20
21.0330704184
 10
-5.4062507354
 20
18.351852264
 10
-2.7246388983
 20
15.6230870946
 10
-0.1856772777
 20
12.8492190006
 10
0.0
 20
12.63821036
  0
LWPOLYLINE
  5
28E
330
22B
100
AcDbEntity
  8
0
  6
Continuous
 62
     8
370
    25
100
AcDbPolyline
 90
        5
 70
   128
 43
0.0
 10
-92.1693917614
 20
82.8479383313
 10
-92.1813062157
 20
82.8497529254
 10
-92.2167803661
 20
82.8419740203
 10
-92.2552720623
 20
82.815828828
 10
-92.29530209
 20
82.7723220935
  0
LINE
  5
293
330
22B
100
AcDbEntity
  8
0
  6
Continuous
 62
     7
370
    25
100
AcDbLine
 10
32.3439558061
 20
-15.0895418437
 30
0.0
 11
32.3439558061
 21
3.6908968297
 31
0.0
  0
LINE
  5
294
330
22B
100
AcDbEntity
  8
0
  6
Continuous
 62
     7
370
    25
100
AcDbLine
 10
19.8846544098
 20
-3.4129622982
 30
0.0
 11
22.4650698792
 21
-1.9233201556
 31
0.0
  0
LINE
  5
295
330
22B
100
AcDbEntity
  8
0
  6
Continuous
 62
     7
370
    25
100
AcDbLine
 10
20.019868984
 20
3.5931109805
 30
0.0
 11
16.8848982119
 21
1.7833308761
 31
0.0
  0
LINE
  5
296
330
22B
100
AcDbEntity
  8
0
  6
Continuous
 62
     7
370
    25
100
AcDbLine
 10
29.6984441778
 20
-16.9054539733
 30
0.0
 11
32.0939354892
 21
-15.5225662749
 31
0.0
  0
LINE
  5
297
330
22B
100
AcDbEntity
  8
0
  6
Continuous
 62
     7
370
    25
100
AcDbLine
 10
8.5709459108
 20
3.1183025964
 30
0.0
 11
13.7740443749
 21
6.1219874044
 31
0.0
  0
LINE
  5
298
330
22B
100
AcDbEntity
  8
0
  6
Continuous
 62
     7
370
    25
100
AcDbLine
 10
11.1430411426
 20
11.5311571346
 30
0.0
 11
5.5711897129
 21
8.3145957707
 31
0.0
  0
LINE
  5
299
330
22B
100
AcDbEntity
  8
0
  6
Continuous
 62
     7
370
    25
100
AcDbLine
 10
10.252430305
 20
23.5198936542
 30
0.0
 11
0.1244400507
 21
19.4259452019
 31
0.0
  0
LINE
  5
29A
330
22B
100
AcDbEntity
  8
0
  6
Continuous
 62
     7
370
    25
100
AcDbLine
 10
-91.79530209
 20
80.0278197878
 30
0.0
 11
-91.79530209
 21
82.3640516875
 31
0.0
  0
LINE
  5
29B
330
22B
100
AcDbEntity
  8
0
  6
Continuous
 62
     7
370
    25
100
AcDbLine
 10
-104.566139079
 20
68.4309515422
 30
0.0
 11
-100.4309794522
 21
70.8181283822
 31
0.0
  0
LINE
  5
29C
330
22B
100
AcDbEntity
  8
0
  6
Continuous
 62
     7
370
    25
100
AcDbLine
 10
-102.3632843645
 20
76.630648067
 30
0.0
 11
-107.5658952769
 21
73.6272447165
 31
0.0
  0
LINE
  5
29D
330
22B
100
AcDbEntity
  8
0
  6
Continuous
 62
     7
370
    25
100
AcDbLine
 10
-98.9253631202
 20
57.469423612
 30
0.0
 11
-93.1124561042
 21
62.2618881439
 31
0.0
  0
LINE
  5
29E
330
22B
100
AcDbEntity
  8
0
  6
Continuous
 62
     7
370
    25
100
AcDbLine
 10
-115.879847578
 20
74.9622164368
 30
0.0
 11
-112.748246566
 21
76.7700512202
 31
0.0
  0
LINE
  5
29F
330
22B
100
AcDbEntity
  8
0
  6
Continuous
 62
     7
370
    25
100
AcDbLine
 10
-116.2993414129
 20
81.6480633672
 30
0.0
 11
-118.8796037759
 21
80.1585096111
 31
0.0
  0
LINE
  5
2A0
330
22B
100
AcDbEntity
  8
0
  6
Continuous
 62
     7
370
    25
100
AcDbLine
 10
-126.0908360817
 20
95.1534257291
 30
0.0
 11
-128.5898604685
 21
93.7107696584
 31
0.0
  0
LINE
  5
2A1
330
22B
100
AcDbEntity
  8
0
  6
Continuous
 62
     7
370
    25
100
AcDbLine
 10
29.3449314192
 20
2.6565111649
 30
0.0
 11
31.8439558061
 21
4.0991672356
 31
0.0
  0
LINE
  5
2A2
330
22B
100
AcDbEntity
  8
0
  6
Continuous
 62
     7
370
    25
100
AcDbLine
 10
32.1975091967
 20
3.4867948018
 30
0.0
 11
30.0520382004
 21
2.248240759
 31
0.0
  0
LINE
  5
2A3
330
22B
100
AcDbEntity
  8
0
  6
Continuous
 62
     7
370
    25
100
AcDbLine
 10
29.3449314192
 20
-16.9404683203
 30
0.0
 11
29.3449314192
 21
2.6565111649
 31
0.0
  0
LINE
  5
2A4
330
22B
100
AcDbEntity
  8
0
  6
Continuous
 62
     7
370
    25
100
AcDbLine
 10
30.0520382004
 20
2.248240759
 30
0.0
 11
30.0520382004
 21
-16.5321979144
 31
0.0
  0
LINE
  5
2A5
330
22B
100
AcDbEntity
  8
0
  6
Continuous
 62
     7
370
    25
100
AcDbLine
 10
10.4398113011
 20
23.4646035331
 30
0.0
 11
0.3590075215
 21
19.3897288545
 31
0.0
  0
LINE
  5
2A6
330
22B
100
AcDbEntity
  8
0
  6
Continuous
 62
     7
370
    25
100
AcDbLine
 10
0.3590075215
 20
19.3897288545
 30
0.0
 11
29.3449314192
 21
2.6565111649
 31
0.0
  0
LINE
  5
2A7
330
22B
100
AcDbEntity
  8
0
  6
Continuous
 62
     7
370
    25
100
AcDbLine
 10
28.2842712475
 20
1.635735625
 30
0.0
 11
28.2842712475
 21
-14.6950806127
 31
0.0
  0
LINE
  5
2A8
330
22B
100
AcDbEntity
  8
0
  6
Continuous
 62
     7
370
    25
100
AcDbLine
 10
1.4360300861
 20
17.1348953386
 30
0.0
 11
28.2842712475
 21
1.635735625
 31
0.0
  0
LINE
  5
2A9
330
22B
100
AcDbEntity
  8
0
  6
Continuous
 62
     7
370
    25
100
AcDbLine
 10
1.4360300861
 20
17.1348953386
 30
0.0
 11
1.4360300861
 21
0.8040791009
 31
0.0
  0
LINE
  5
2AA
330
22B
100
AcDbEntity
  8
0
  6
Continuous
 62
     7
370
    25
100
AcDbLine
 10
1.4360300861
 20
0.8040791009
 30
0.0
 11
28.2842712475
 21
-14.6950806127
 31
0.0
  0
LINE
  5
2AB
330
22B
100
AcDbEntity
  8
0
  6
Continuous
 62
     7
370
    25
100
AcDbLine
 10
0.0
 20
19.1887090793
 30
0.0
 11
0.0
 21
0.4082704059
 31
0.0
  0
LINE
  5
2AC
330
22B
100
AcDbEntity
  8
0
  6
Continuous
 62
     7
370
    25
100
AcDbLine
 10
0.3590075215
 20
-0.2072506307
 30
0.0
 11
29.3449314192
 21
-16.9404683203
 31
0.0
  0
LINE
  5
2AD
330
22B
100
AcDbEntity
  8
0
  6
Continuous
 62
     7
370
    25
100
AcDbLine
 10
32.1975091967
 20
-15.2936438716
 30
0.0
 11
32.1975091967
 21
3.4867948018
 31
0.0
  0
LINE
  5
2AE
330
22B
100
AcDbEntity
  8
0
  6
Continuous
 62
     7
370
    25
100
AcDbLine
 10
30.0520382004
 20
-16.5321979144
 30
0.0
 11
32.1975091967
 21
-15.2936438716
 31
0.0
  0
LINE
  5
2AF
330
22B
100
AcDbEntity
  8
0
  6
Continuous
 62
     7
370
    25
100
AcDbLine
 10
9.8254649769
 20
12.2917776648
 30
0.0
 11
9.8254649769
 21
10.7705366044
 31
0.0
  0
LINE
  5
2B0
330
22B
100
AcDbEntity
  8
0
  6
Continuous
 62
     7
370
    25
100
AcDbLine
 10
7.2705583722
 20
3.1625191711
 30
0.0
 11
1.4360300861
 21
0.8040791009
 31
0.0
  0
LINE
  5
2B1
330
22B
100
AcDbEntity
  8
0
  6
Continuous
 62
     7
370
    25
100
AcDbLine
 10
-98.6531684768
 20
76.6190589456
 30
0.0
 11
-98.6531684768
 21
57.8386202722
 31
0.0
  0
LINE
  5
2B2
330
22B
100
AcDbEntity
  8
0
  6
Continuous
 62
     7
370
    25
100
AcDbLine
 10
-99.4162978895
 20
57.3918071527
 30
0.0
 11
-99.4162978895
 21
76.9887866379
 31
0.0
  0
LINE
  5
2B3
330
22B
100
AcDbEntity
  8
0
  6
Continuous
 62
     7
370
    25
100
AcDbLine
 10
-91.8857260678
 20
82.1984923732
 30
0.0
 11
-98.6531684768
 21
76.6190589456
 31
0.0
  0
LINE
  5
2B4
330
22B
100
AcDbEntity
  8
0
  6
Continuous
 62
     7
370
    25
100
AcDbLine
 10
-99.3495327171
 20
76.9564454611
 30
0.0
 11
-92.29530209
 21
82.7723220935
 31
0.0
  0
LINE
  5
2B5
330
22B
100
AcDbEntity
  8
0
  6
Continuous
 62
     7
370
    25
100
AcDbLine
 10
-125.8408563985
 20
95.1286717039
 30
0.0
 11
-128.3398807854
 21
93.6860156332
 31
0.0
  0
LINE
  5
2B6
330
22B
100
AcDbEntity
  8
0
  6
Continuous
 62
     7
370
    25
100
AcDbLine
 10
-99.4162978895
 20
76.9887866379
 30
0.0
 11
-128.3398807854
 21
93.6860156332
 31
0.0
  0
LINE
  5
2B7
330
22B
100
AcDbEntity
  8
0
  6
Continuous
 62
     7
370
    25
100
AcDbLine
 10
-100.4309794522
 20
75.941468212
 30
0.0
 11
-100.4309794522
 21
59.6106519743
 31
0.0
  0
LINE
  5
2B8
330
22B
100
AcDbEntity
  8
0
  6
Continuous
 62
     7
370
    25
100
AcDbLine
 10
-100.4309794522
 20
75.941468212
 30
0.0
 11
-127.2792206136
 21
91.4406279255
 31
0.0
  0
LINE
  5
2B9
330
22B
100
AcDbEntity
  8
0
  6
Continuous
 62
     7
370
    25
100
AcDbLine
 10
-127.2792206136
 20
91.4406279255
 30
0.0
 11
-127.2792206136
 21
75.1098116878
 31
0.0
  0
LINE
  5
2BA
330
22B
100
AcDbEntity
  8
0
  6
Continuous
 62
     7
370
    25
100
AcDbLine
 10
-100.4309794522
 20
59.6106519743
 30
0.0
 11
-127.2792206136
 21
75.1098116878
 31
0.0
  0
LINE
  5
2BB
330
22B
100
AcDbEntity
  8
0
  6
Continuous
 62
     7
370
    25
100
AcDbLine
 10
-128.693434176
 20
93.4818472552
 30
0.0
 11
-128.693434176
 21
74.7014085818
 31
0.0
  0
LINE
  5
2BC
330
22B
100
AcDbEntity
  8
0
  6
Continuous
 62
     7
370
    25
100
AcDbLine
 10
-99.4162978895
 20
57.3918071527
 30
0.0
 11
-128.3398807854
 21
74.0890361479
 31
0.0
  0
LINE
  5
2BD
330
22B
100
AcDbEntity
  8
0
  6
Continuous
 62
     7
370
    25
100
AcDbLine
 10
-125.7617644858
 20
90.5646191493
 30
0.0
 11
-125.7617644858
 21
75.985820464
 31
0.0
  0
LINE
  5
2BE
330
22B
100
AcDbEntity
  8
0
  6
Continuous
 62
     7
370
    25
100
AcDbLine
 10
-127.2792206136
 20
75.1098116878
 30
0.0
 11
-125.7617644858
 21
75.985820464
 31
0.0
  0
LINE
  5
2BF
330
22B
100
AcDbEntity
  8
0
  6
Continuous
 62
     7
370
    25
100
AcDbLine
 10
-92.7577605303
 20
80.2547303412
 30
0.0
 11
-94.4063378753
 21
78.8955569651
 31
0.0
  0
LINE
  5
2C0
330
22B
100
AcDbEntity
  8
0
  6
Continuous
 62
     7
370
    25
100
AcDbLine
 10
-94.4063378753
 20
78.8955569651
 30
0.0
 11
-94.4063378753
 21
62.5647407273
 31
0.0
  0
LINE
  5
2C1
330
22B
100
AcDbEntity
  8
0
  6
Continuous
 62
     8
370
    25
100
AcDbLine
 10
-91.8857260678
 20
80.0492939904
 30
0.0
 11
-91.8857260678
 21
82.1984923732
 31
0.0
  0
LINE
  5
2C2
330
22B
100
AcDbEntity
  8
0
  6
Continuous
 62
     8
370
    25
100
AcDbLine
 10
-98.6531684768
 20
57.8386202722
 30
0.0
 11
-93.2489387737
 21
62.2941498554
 31
0.0
  0
ARC
  5
2C3
330
22B
100
AcDbEntity
  8
0
  6
Continuous
 62
     7
370
    25
100
AcDbCircle
 10
31.8439558061
 20
3.6908968297
 30
0.0
 40
0.4999999999999535
100
AcDbArc
 50
360.0
 51
56.2746005951
  0
ARC
  5
2C4
330
22B
100
AcDbEntity
  8
0
  6
Continuous
 62
     7
370
    25
100
AcDbCircle
 10
31.8439558061
 20
-15.0895418437
 30
0.0
 40
0.5000000000000081
100
AcDbArc
 50
299.9973117337
 51
360.0
  0
ARC
  5
2C5
330
22B
100
AcDbEntity
  8
0
  6
Continuous
 62
     7
370
    25
100
AcDbCircle
 10
10.4398113011
 20
23.0563331271
 30
0.0
 40
0.5000000000000052
100
AcDbArc
 50
37.9374600046
 51
112.0096032713
  0
ARC
  5
2C6
330
22B
100
AcDbEntity
  8
0
  6
Continuous
 62
     7
370
    25
100
AcDbCircle
 10
-92.29530209
 20
82.3640516875
 30
0.0
 40
0.5000000000000757
100
AcDbArc
 50
0.0
 51
75.437226386
  0
ARC
  5
2C7
330
22B
100
AcDbEntity
  8
0
  6
Continuous
 62
     7
370
    25
100
AcDbCircle
 10
-125.8408563985
 20
94.7204012979
 30
0.0
 40
0.4999999999999708
100
AcDbArc
 50
63.4705121152
 51
119.9973117337
  0
ARC
  5
2C8
330
22B
100
AcDbEntity
  8
0
  6
Continuous
 62
     7
370
    25
100
AcDbCircle
 10
31.429901146
 20
3.4518643756
 30
0.0
 40
0.7684024037860374
100
AcDbArc
 50
2.6054784857
 51
57.39452166
  0
ARC
  5
2C9
330
22B
100
AcDbEntity
  8
0
  6
Continuous
 62
     7
370
    25
100
AcDbCircle
 10
81.4056243516
 20
80.3899285309
 30
0.0
 40
90.97603666916075
100
AcDbArc
 50
218.7348910592
 51
236.9905619102
  0
ARC
  5
2CA
330
22B
100
AcDbEntity
  8
0
  6
Continuous
 62
     7
370
    25
100
AcDbCircle
 10
0.7734141624
 20
0.446912835
 30
0.0
 40
0.7743789149316893
100
AcDbArc
 50
182.860315489
 51
237.646111183
  0
ARC
  5
2CB
330
22B
100
AcDbEntity
  8
0
  6
Continuous
 62
     7
370
    25
100
AcDbCircle
 10
0.2176799558
 20
19.2210389028
 30
0.0
 40
0.2200676728777245
100
AcDbArc
 50
50.0438996682
 51
188.4478149584
  0
ARC
  5
2CC
330
22B
100
AcDbEntity
  8
0
  6
Continuous
 62
     7
370
    25
100
AcDbCircle
 10
80.3662642221
 20
62.4521331301
 30
0.0
 40
91.49038726105783
100
AcDbArc
 50
219.7456614679
 51
235.3012271967
  0
ARC
  5
2CD
330
22B
100
AcDbEntity
  8
0
  6
Continuous
 62
     7
370
    25
100
AcDbCircle
 10
-101.5681390587
 20
71.489912441
 30
0.0
 40
5.899592982472592
100
AcDbArc
 50
60.3897837285
 51
67.9101008877
  0
ARC
  5
2CE
330
22B
100
AcDbEntity
  8
0
  6
Continuous
 62
     7
370
    25
100
AcDbCircle
 10
-99.1508863037
 20
57.8546375685
 30
0.0
 40
0.5335309772929925
100
AcDbArc
 50
240.1677465472
 51
248.140981054
  0
ARC
  5
2CF
330
22B
100
AcDbEntity
  8
0
  6
Continuous
 62
     7
370
    25
100
AcDbCircle
 10
-99.1508863037
 20
77.4516170538
 30
0.0
 40
0.5335309772893609
100
AcDbArc
 50
240.1677465472
 51
248.140981054
  0
ARC
  5
2D0
330
22B
100
AcDbEntity
  8
0
  6
Continuous
 62
     7
370
    25
100
AcDbCircle
 10
-92.5566385704
 20
82.1527067679
 30
0.0
 40
0.6724729791549348
100
AcDbArc
 50
3.9040274603
 51
67.1313381246
  0
ARC
  5
2D1
330
22B
100
AcDbEntity
  8
0
  6
Continuous
 62
     7
370
    25
100
AcDbCircle
 10
-49.8558093755
 20
249.702537529
 30
0.0
 40
172.2405508793082
100
AcDbArc
 50
243.8223031826
 51
255.7356142626
  0
ARC
  5
2D2
330
22B
100
AcDbEntity
  8
0
  6
Continuous
 62
     7
370
    25
100
AcDbCircle
 10
-127.9258261253
 20
74.7363390079
 30
0.0
 40
0.7684024037859886
100
AcDbArc
 50
182.6054784857
 51
237.39452166
  0
ARC
  5
2D3
330
22B
100
AcDbEntity
  8
0
  6
Continuous
 62
     7
370
    25
100
AcDbCircle
 10
-128.4778969922
 20
93.5168108536
 30
0.0
 40
0.2183545987142256
100
AcDbArc
 50
50.7967147643
 51
189.2140369905
  0
ARC
  5
2D4
330
22B
100
AcDbEntity
  8
0
  6
Continuous
 62
     7
370
    25
100
AcDbCircle
 10
-51.3006905921
 20
229.9064509389
 30
0.0
 40
170.9854146154167
100
AcDbArc
 50
244.184030422
 51
253.3014584275
  0
ARC
  5
2D5
330
22B
100
AcDbEntity
  8
0
  6
Continuous
 62
     8
370
    25
100
AcDbCircle
 10
31.9889773175
 20
3.8753349033
 30
0.0
 40
0.2667061149942018
100
AcDbArc
 50
60.1903235887
 51
122.9393000455
  0
ARC
  5
2D6
330
22B
100
AcDbEntity
  8
0
  6
Continuous
 62
     8
370
    25
100
AcDbCircle
 10
32.1029356437
 20
3.7092428599
 30
0.0
 40
0.2417173876570965
100
AcDbArc
 50
293.0327189964
 51
355.647140046
  0
ARC
  5
2D7
330
22B
100
AcDbEntity
  8
0
  6
Continuous
 62
     8
370
    25
100
AcDbCircle
 10
10.5615847305
 20
23.119464998
 30
0.0
 40
0.3659909513723867
100
AcDbArc
 50
41.8319032506
 51
109.4341045566
  0
ARC
  5
2D8
330
22B
100
AcDbEntity
  8
0
  6
Continuous
 62
     8
370
    25
100
AcDbCircle
 10
32.1029356437
 20
-15.0711958135
 30
0.0
 40
0.241717387657321
100
AcDbArc
 50
293.0327189965
 51
355.6471400459
  0
ARC
  5
2D9
330
22B
100
AcDbEntity
  8
0
  6
Continuous
 62
     8
370
    25
100
AcDbCircle
 10
31.9596664187
 20
-15.3239258859
 30
0.0
 40
0.2397627731996008
100
AcDbArc
 50
304.0563508304
 51
7.255829563
  0
ARC
  5
2DA
330
22B
100
AcDbEntity
  8
0
  6
Continuous
 62
     8
370
    25
100
AcDbCircle
 10
10.3002767044
 20
23.3368806419
 30
0.0
 40
0.1891640573929899
100
AcDbArc
 50
42.4694038891
 51
104.6513176091
  0
ARC
  5
2DB
330
22B
100
AcDbEntity
  8
0
  6
Continuous
 62
     8
370
    25
100
AcDbCircle
 10
-125.6957344313
 20
94.9568983367
 30
0.0
 40
0.2248699069712454
100
AcDbArc
 50
69.5986241107
 51
130.1926470871
  0
ARC
  5
2DC
330
22B
100
AcDbEntity
  8
0
  6
Continuous
 62
     8
370
    25
100
AcDbCircle
 10
-92.0120874234
 20
82.3749807073
 30
0.0
 40
0.2170606465281261
100
AcDbArc
 50
305.6017424492
 51
357.1139329078
  0
ARC
  5
2DD
330
22B
100
AcDbEntity
  8
0
  6
Continuous
 62
     8
370
    25
100
AcDbCircle
 10
-125.987316426
 20
94.9242310393
 30
0.0
 40
0.2514886179508752
100
AcDbArc
 50
54.3824225248
 51
114.3071190461
  0
ARC
  5
2DE
330
22B
100
AcDbEntity
  8
0
  6
Continuous
 62
     8
370
    25
100
AcDbCircle
 10
-88.4693487845
 20
-50.0954411142
 30
0.0
 40
120.9302710245848
100
AcDbArc
 50
36.9870897156
 51
58.1789070023
  0
VIEWPORT
  5
4F4
330
22B
100
AcDbEntity
  8
0
100
AcDbViewport
 10
0.0
 20
0.0
 30
0.0
 40
205.6
 41
156.0
 68
     1
 69
     1
 12
-70.0
 22
12.75
 13
0.0
 23
0.0
 14
10.0
 24
10.0
 15
10.0
 25
10.0
 16
0.0
 26
0.0
 36
1.0
 17
0.0
 27
0.0
 37
0.0
 42
50.0
 43
0.0
 44
0.0
 45
173.360311284
 50
0.0
 51
0.0
 72
   100
 90
   557152
  1

281
     0
 71
     1
 74
     0
110
0.0
120
0.0
130
0.0
111
1.0
121
0.0
131
0.0
112
0.0
122
1.0
132
0.0
 79
     0
146
0.0
  0
ENDBLK
  5
22E
330
22B
100
AcDbEntity
  8
0
100
AcDbBlockEnd
  0
BLOCK
  5
2E1
330
2DF
100
AcDbEntity
  8
0
100
AcDbBlockBegin
  2
*Paper_Space5
 70
     0
 10
0.0
 20
0.0
 30
0.0
  3
*Paper_Space5
  1

  0
SPLINE
  5
2E4
330
2DF
100
AcDbEntity
  8
0
  6
Continuous
 62
     7
370
    25
100
AcDbSpline
210
0.0
220
0.0
230
1.0
 70
     8
 71
     3
 72
    17
 73
    13
 74
     0
 42
0.000000001
 43
0.00000001
 40
0.0
 40
0.0
 40
0.0
 40
0.0
 40
0.0577845134484824
 40
0.1675935802042596
 40
0.2774007342165358
 40
0.3872023438274401
 40
0.4969982657270106
 40
0.6067884225209321
 40
0.7165728218839302
 40
0.8263515803406656
 40
0.9361249520704437
 40
1.0
 40
1.0
 40
1.0
 40
1.0
 10
38.50572900144886
 20
12.25410063142118
 30
0.0
 10
37.85712580547458
 20
12.46493445410908
 30
0.0
 10
35.97596898233778
 20
13.07642000730867
 30
0.0
 10
32.91996539753653
 20
14.13461341620376
 30
0.0
 10
29.36695588426717
 20
15.44696159079723
 30
0.0
 10
25.89843323774897
 20
16.817557061857
 30
0.0
 10
22.51668096813715
 20
18.24389063640043
 30
0.0
 10
19.22561711196806
 20
19.72481975348348
 30
0.0
 10
16.0279825529434
 20
21.25849744781259
 30
0.0
 10
12.92898560968526
 20
22.84419665498262
 30
0.0
 10
10.34324083606258
 20
24.24952614696023
 30
0.0
 10
8.810909948261752
 20
25.13448171858114
 30
0.0
 10
8.247255472774814
 20
25.46000486278082
 30
0.0
  0
SPLINE
  5
2EE
330
2DF
100
AcDbEntity
  8
0
  6
Continuous
 62
     7
370
    25
100
AcDbSpline
210
0.0
220
0.0
230
1.0
 70
     8
 71
     3
 72
    17
 73
    13
 74
     0
 42
0.000000001
 43
0.00000001
 40
0.0
 40
0.0
 40
0.0
 40
0.0
 40
0.0577784636382818
 40
0.1675964380455493
 40
0.2774163849041641
 40
0.3872346140132051
 40
0.4970508350336225
 40
0.6068647546301662
 40
0.716676076227396
 40
0.8264845003146841
 40
0.9362897250784754
 40
1.0
 40
1.0
 40
1.0
 40
1.0
 10
-120.4696970347178
 20
60.44984900547311
 30
0.0
 10
-121.2309733213523
 20
60.50034240669211
 30
0.0
 10
-123.4391870046931
 20
60.64680725979179
 30
0.0
 10
-127.0799448693446
 20
60.94361076478842
 30
0.0
 10
-131.3805667332068
 20
61.36324403220391
 30
0.0
 10
-135.6526818249199
 20
61.85418591320143
 30
0.0
 10
-139.8921745142765
 20
62.4146744450119
 30
0.0
 10
-144.0945704183446
 20
63.04454511302215
 30
0.0
 10
-148.2558798799022
 20
63.74273843656819
 30
0.0
 10
-152.3708035335536
 20
64.50975085750717
 30
0.0
 10
-155.8698238199924
 20
65.22411025190536
 30
0.0
 10
-157.9855530500404
 20
65.6946375620208
 30
0.0
 10
-158.7623925321058
 20
65.86740267141968
 30
0.0
  0
SPLINE
  5
30F
330
2DF
100
AcDbEntity
  8
0
  6
Continuous
 62
     7
370
    25
100
AcDbSpline
210
0.0
220
0.0
230
1.0
 70
     8
 71
     3
 72
    15
 73
    11
 74
     0
 42
0.000000001
 43
0.00000001
 40
0.0
 40
0.0
 40
0.0
 40
0.0
 40
0.1283577433590529
 40
0.2566428551011828
 40
0.3869929169700791
 40
0.5222132779120999
 40
0.6628537210300048
 40
0.8073324125521297
 40
0.9518340257915133
 40
1.0
 40
1.0
 40
1.0
 40
1.0
 10
14.8079213208447
 20
10.39238654646777
 30
0.0
 10
14.78440263603463
 20
10.68466389718937
 30
0.0
 10
14.73737857453338
 20
11.26905321261051
 30
0.0
 10
14.37328727841988
 20
12.19938804788242
 30
0.0
 10
13.83555774954459
 20
13.05359063988853
 30
0.0
 10
13.15001601237029
 20
13.75972625647311
 30
0.0
 10
12.3823800146954
 20
14.23831116798289
 30
0.0
 10
11.63812800990656
 20
14.38693079067875
 30
0.0
 10
11.09724430765377
 20
14.2934647590706
 30
0.0
 10
10.90755311947937
 20
14.0459205887919
 30
0.0
 10
10.86013123083578
 20
13.98403573167066
 30
0.0
  0
SPLINE
  5
310
330
2DF
100
AcDbEntity
  8
0
  6
Continuous
 62
     7
370
    25
100
AcDbSpline
210
0.0
220
0.0
230
1.0
 70
     8
 71
     3
 72
    10
 73
     6
 74
     0
 42
0.000000001
 43
0.00000001
 40
0.0
 40
0.0
 40
0.0
 40
0.0
 40
0.184650050862513
 40
0.6984696826235798
 40
1.0
 40
1.0
 40
1.0
 40
1.0
 10
14.31228803086813
 20
9.085150398289501
 30
0.0
 10
14.37379282468536
 20
9.129426743660188
 30
0.0
 10
14.60644498815175
 20
9.296909421050968
 30
0.0
 10
14.77069276254389
 20
9.780985597086525
 30
0.0
 10
14.79787052190369
 20
10.22732326453998
 30
0.0
 10
14.8079213208447
 20
10.39238654646777
 30
0.0
  0
SPLINE
  5
311
330
2DF
100
AcDbEntity
  8
0
  6
Continuous
 62
     7
370
    25
100
AcDbSpline
210
0.0
220
0.0
230
1.0
 70
     8
 71
     3
 72
    15
 73
    11
 74
     0
 42
0.000000001
 43
0.00000001
 40
0.0
 40
0.0
 40
0.0
 40
0.0
 40
0.1332600214496478
 40
0.2664954955329903
 40
0.4004450376395
 40
0.5360931455851446
 40
0.673693222292955
 40
0.8127305867679443
 40
0.9518626091457794
 40
1.0
 40
1.0
 40
1.0
 40
1.0
 10
27.2804406892813
 20
4.90858630030722
 30
0.0
 10
27.25413731173722
 20
5.205066312838625
 30
0.0
 10
27.20153540190299
 20
5.797971724346748
 30
0.0
 10
26.79284619135454
 20
6.72053915569118
 30
0.0
 10
26.19143322294434
 20
7.54312220497921
 30
0.0
 10
25.43783084104177
 20
8.18697679597109
 30
0.0
 10
24.61432728728924
 20
8.582329967521739
 30
0.0
 10
23.83147938141055
 20
8.65434591662443
 30
0.0
 10
23.26805058859409
 20
8.512646833686713
 30
0.0
 10
23.06926656117712
 20
8.260441438415283
 30
0.0
 10
23.01816935177064
 20
8.195612326825765
 30
0.0
  0
SPLINE
  5
312
330
2DF
100
AcDbEntity
  8
0
  6
Continuous
 62
     7
370
    25
100
AcDbSpline
210
0.0
220
0.0
230
1.0
 70
     8
 71
     3
 72
    10
 73
     6
 74
     0
 42
0.000000001
 43
0.00000001
 40
0.0
 40
0.0
 40
0.0
 40
0.0
 40
0.1734260813866088
 40
0.6848004367196332
 40
1.0
 40
1.0
 40
1.0
 40
1.0
 10
26.7480146445564
 20
3.561796635660266
 30
0.0
 10
26.81078343906994
 20
3.608217987634187
 30
0.0
 10
27.05863599706786
 20
3.791520071442386
 30
0.0
 10
27.23795070448072
 20
4.283917698690493
 30
0.0
 10
27.26871084543284
 20
4.736139423981121
 30
0.0
 10
27.2804406892813
 20
4.90858630030722
 30
0.0
  0
LWPOLYLINE
  5
313
330
2DF
100
AcDbEntity
  8
0
  6
Continuous
 62
     7
370
    25
100
AcDbPolyline
 90
       28
 70
   128
 43
0.0
 10
25.6481255286
 20
3.3153966626
 10
25.5766067139
 20
3.9278630943
 10
25.3659058673
 20
4.5461858649
 10
25.0273819261
 20
5.1370310338
 10
24.5792848037
 20
5.668545985
 10
24.0457715318
 20
6.11207661
 10
23.455603949
 20
6.443712058
 10
22.8405981425
 20
6.645573776
 10
22.2339092345
 20
6.7067793466
 10
21.6682439811
 20
6.6240291618
 10
21.1740975425
 20
6.4017843053
 10
20.7781094811
 20
6.0520260548
 10
20.5016276157
 20
5.5936099683
 10
20.3595571554
 20
5.0512493756
 10
20.3595571554
 20
4.4541830766
 10
20.5016276157
 20
3.8345990701
 10
20.7781094811
 20
3.2258992902
 10
21.1740975425
 20
2.6608988996
 10
21.6682439811
 20
2.1700572156
 10
22.2339092345
 20
1.7798356404
 10
22.8405981425
 20
1.5112711202
 10
23.455603949
 20
1.3788420378
 10
24.0457715318
 20
1.3896876793
 10
24.5792848037
 20
1.5432233533
 10
25.0273819261
 20
1.8311719119
 10
25.3659058673
 20
2.2380099738
 10
25.5766067139
 20
2.7418047937
 10
25.6481255286
 20
3.3153966626
  0
LWPOLYLINE
  5
314
330
2DF
100
AcDbEntity
  8
0
  6
Continuous
 62
     7
370
    25
100
AcDbPolyline
 90
       22
 70
   128
 43
0.0
 10
24.5426028765
 20
3.6158540309
 10
24.4738414991
 20
4.0766872701
 10
24.2736671171
 20
4.5339491916
 10
23.9598661026
 20
4.9470100671
 10
23.5603210531
 20
5.2791676251
 10
23.1105332994
 20
5.5009082089
 10
22.6504684573
 20
5.5925291946
 10
22.2210053071
 20
5.5458896555
 10
21.8603035344
 20
5.3651337193
 10
21.6004130744
 20
5.0663223443
 10
21.4644263351
 20
4.6760062323
 10
21.4644263351
 20
4.2288666828
 10
21.6004130744
 20
3.7646340071
 10
21.8603035344
 20
3.3245573156
 10
22.2210053071
 20
2.9477393535
 10
22.6504684573
 20
2.6676620505
 10
23.1105332994
 20
2.5092115041
 10
23.5603210531
 20
2.4864667406
 10
23.9598661026
 20
2.6014487321
 10
24.2736671171
 20
2.843940824
 10
24.4738414991
 20
3.1923965298
 10
24.5426028765
 20
3.6158540309
  0
LWPOLYLINE
  5
316
330
2DF
100
AcDbEntity
  8
0
  6
Continuous
 62
     7
370
    25
100
AcDbPolyline
 90
       28
 70
   128
 43
0.0
 10
11.4974355818
 20
7.1612509775
 10
11.425916767
 20
7.7737174092
 10
11.2152159204
 20
8.3920401798
 10
10.8766919793
 20
8.9828853487
 10
10.4285948568
 20
9.5144003
 10
9.8950815849
 20
9.957930925
 10
9.3049140021
 20
10.2895663729
 10
8.6899081957
 20
10.4914280909
 10
8.0832192877
 20
10.5526336616
 10
7.5175540343
 20
10.4698834767
 10
7.0234075956
 20
10.2476386202
 10
6.6274195342
 20
9.8978803698
 10
6.3509376689
 20
9.4394642833
 10
6.2088672086
 20
8.8971036906
 10
6.2088672086
 20
8.3000373916
 10
6.3509376689
 20
7.680453385
 10
6.6274195342
 20
7.0717536051
 10
7.0234075956
 20
6.5067532145
 10
7.5175540343
 20
6.0159115305
 10
8.0832192877
 20
5.6256899554
 10
8.6899081957
 20
5.3571254352
 10
9.3049140021
 20
5.2246963528
 10
9.8950815849
 20
5.2355419942
 10
10.4285948568
 20
5.3890776682
 10
10.8766919793
 20
5.6770262268
 10
11.2152159204
 20
6.0838642887
 10
11.425916767
 20
6.5876591087
 10
11.4974355818
 20
7.1612509775
  0
LWPOLYLINE
  5
317
330
2DF
100
AcDbEntity
  8
0
  6
Continuous
 62
     7
370
    25
100
AcDbPolyline
 90
       22
 70
   128
 43
0.0
 10
10.3919129297
 20
7.4617083459
 10
10.3231515523
 20
7.922541585
 10
10.1229771702
 20
8.3798035065
 10
9.8091761558
 20
8.792864382
 10
9.4096311062
 20
9.12502194
 10
8.9598433525
 20
9.3467625238
 10
8.4997785105
 20
9.4383835095
 10
8.0703153603
 20
9.3917439704
 10
7.7096135875
 20
9.2109880343
 10
7.4497231276
 20
8.9121766592
 10
7.3137363883
 20
8.5218605472
 10
7.3137363883
 20
8.0747209978
 10
7.4497231276
 20
7.610488322
 10
7.7096135875
 20
7.1704116305
 10
8.0703153603
 20
6.7935936685
 10
8.4997785105
 20
6.5135163655
 10
8.9598433525
 20
6.355065819
 10
9.4096311062
 20
6.3323210555
 10
9.8091761558
 20
6.447303047
 10
10.1229771702
 20
6.6897951389
 10
10.3231515523
 20
7.0382508448
 10
10.3919129297
 20
7.4617083459
  0
SPLINE
  5
32E
330
2DF
100
AcDbEntity
  8
0
  6
Continuous
 62
     7
370
    25
100
AcDbSpline
210
0.0
220
0.0
230
1.0
 70
     8
 71
     3
 72
    17
 73
    13
 74
     0
 42
0.000000001
 43
0.00000001
 40
0.0
 40
0.0
 40
0.0
 40
0.0
 40
0.1003835283256814
 40
0.2075574222852402
 40
0.3190272026654828
 40
0.4335391286560339
 40
0.5480692221006402
 40
0.6589674845313502
 40
0.7642319751755817
 40
0.8649604159526052
 40
0.9644734219370735
 40
1.0
 40
1.0
 40
1.0
 40
1.0
 10
-131.3591602610958
 20
51.79925503588639
 30
0.0
 10
-131.138258665361
 20
51.97610359749054
 30
0.0
 10
-130.6815127574001
 20
52.34176350398758
 30
0.0
 10
-129.7296608811879
 20
52.59009471700298
 30
0.0
 10
-128.6703503196665
 20
52.57107370251428
 30
0.0
 10
-127.6075442507029
 20
52.24194339383915
 30
0.0
 10
-126.694365076005
 20
51.63575510662122
 30
0.0
 10
-126.0628603484236
 20
50.83559020653063
 30
0.0
 10
-125.7792344752777
 20
49.95469830665704
 30
0.0
 10
-125.8639521466269
 20
49.11813875275054
 30
0.0
 10
-126.1311400101046
 20
48.50882018111852
 30
0.0
 10
-126.4298079877751
 20
48.26776395931387
 30
0.0
 10
-126.5083823650472
 20
48.20434623819227
 30
0.0
  0
SPLINE
  5
32F
330
2DF
100
AcDbEntity
  8
0
  6
Continuous
 62
     7
370
    25
100
AcDbSpline
210
0.0
220
0.0
230
1.0
 70
     8
 71
     3
 72
    18
 73
    14
 74
     0
 42
0.000000001
 43
0.00000001
 40
0.0
 40
0.0
 40
0.0
 40
0.0
 40
0.0019519776365514
 40
0.1078720978179645
 40
0.2151353528469322
 40
0.3239421201763371
 40
0.4338854176546331
 40
0.5439035655302376
 40
0.6526542827477384
 40
0.759292671075746
 40
0.8641021445181395
 40
0.9683782893225988
 40
0.9999999999999999
 40
0.9999999999999999
 40
0.9999999999999999
 40
0.9999999999999999
 10
-147.2251255179434
 20
53.97281510702839
 30
0.0
 10
-147.2223067236307
 20
53.97695770961231
 30
0.0
 10
-147.0665317546293
 20
54.20589026641218
 30
0.0
 10
-146.5122159820712
 20
54.47075934729206
 30
0.0
 10
-145.629988963804
 20
54.68273950540965
 30
0.0
 10
-144.6251175460478
 20
54.57485998945175
 30
0.0
 10
-143.6526544934456
 20
54.18229505404241
 30
0.0
 10
-142.8199604580506
 20
53.53695096491955
 30
0.0
 10
-142.2368856791412
 20
52.7202985548824
 30
0.0
 10
-141.9636693032766
 20
51.82724723248311
 30
0.0
 10
-142.0430150170332
 20
50.98152895228989
 30
0.0
 10
-142.2960036330957
 20
50.37880602961648
 30
0.0
 10
-142.5833994545334
 20
50.15747978952253
 30
0.0
 10
-142.650272824118
 20
50.10597997516009
 30
0.0
  0
LWPOLYLINE
  5
330
330
2DF
100
AcDbEntity
  8
0
  6
Continuous
 62
     7
370
    25
100
AcDbPolyline
 90
       28
 70
   128
 43
0.0
 10
-135.3159726166
 20
47.0619894951
 10
-135.2444538019
 20
47.6355813639
 10
-135.0337529553
 20
48.1393761839
 10
-134.6952290141
 20
48.5462142458
 10
-134.2471318917
 20
48.8341628044
 10
-133.7136186198
 20
48.9876984784
 10
-133.123451037
 20
48.9985441198
 10
-132.5084452305
 20
48.8661150374
 10
-131.9017563225
 20
48.5975505172
 10
-131.3360910691
 20
48.2073289421
 10
-130.8419446305
 20
47.7164872581
 10
-130.4459565691
 20
47.1514868675
 10
-130.1694747037
 20
46.5427870876
 10
-130.0274042434
 20
45.923203081
 10
-130.0274042434
 20
45.326136782
 10
-130.1694747037
 20
44.7837761893
 10
-130.4459565691
 20
44.3253601028
 10
-130.8419446305
 20
43.9756018524
 10
-131.3360910691
 20
43.7533569959
 10
-131.9017563225
 20
43.670606811
 10
-132.5084452305
 20
43.7318123817
 10
-133.123451037
 20
43.9336740997
 10
-133.7136186198
 20
44.2653095476
 10
-134.2471318917
 20
44.7088401726
 10
-134.6952290141
 20
45.2403551239
 10
-135.0337529553
 20
45.8312002928
 10
-135.2444538019
 20
46.4495230634
 10
-135.3159726166
 20
47.0619894951
  0
LWPOLYLINE
  5
331
330
2DF
100
AcDbEntity
  8
0
  6
Continuous
 62
     7
370
    25
100
AcDbPolyline
 90
       22
 70
   128
 43
0.0
 10
-134.2104499645
 20
46.7615321267
 10
-134.1416885871
 20
47.1849896278
 10
-133.9415142051
 20
47.5334453337
 10
-133.6277131906
 20
47.7759374256
 10
-133.2281681411
 20
47.8909194171
 10
-132.7783803874
 20
47.8681746536
 10
-132.3183155453
 20
47.7097241071
 10
-131.8888523951
 20
47.4296468041
 10
-131.5281506224
 20
47.0528288421
 10
-131.2682601624
 20
46.6127521506
 10
-131.1322734231
 20
46.1485194748
 10
-131.1322734231
 20
45.7013799254
 10
-131.2682601624
 20
45.3110638134
 10
-131.5281506224
 20
45.0122524383
 10
-131.8888523951
 20
44.8314965022
 10
-132.3183155453
 20
44.7848569631
 10
-132.7783803874
 20
44.8764779488
 10
-133.2281681411
 20
45.0982185326
 10
-133.6277131906
 20
45.4303760906
 10
-133.9415142051
 20
45.8434369661
 10
-134.1416885871
 20
46.3006988876
 10
-134.2104499645
 20
46.7615321267
  0
LWPOLYLINE
  5
333
330
2DF
100
AcDbEntity
  8
0
  6
Continuous
 62
     7
370
    25
100
AcDbPolyline
 90
       28
 70
   128
 43
0.0
 10
-149.4666625635
 20
50.90784381
 10
-149.3951437487
 20
51.4814356789
 10
-149.1844429021
 20
51.9852304988
 10
-148.845918961
 20
52.3920685607
 10
-148.3978218385
 20
52.6800171193
 10
-147.8643085666
 20
52.8335527933
 10
-147.2741409838
 20
52.8443984348
 10
-146.6591351773
 20
52.7119693524
 10
-146.0524462694
 20
52.4434048322
 10
-145.4867810159
 20
52.053183257
 10
-144.9926345773
 20
51.562341573
 10
-144.5966465159
 20
50.9973411824
 10
-144.3201646506
 20
50.3886414025
 10
-144.1780941903
 20
49.769057396
 10
-144.1780941903
 20
49.171991097
 10
-144.3201646506
 20
48.6296305043
 10
-144.5966465159
 20
48.1712144178
 10
-144.9926345773
 20
47.8214561673
 10
-145.4867810159
 20
47.5992113108
 10
-146.0524462694
 20
47.516461126
 10
-146.6591351773
 20
47.5776666966
 10
-147.2741409838
 20
47.7795284146
 10
-147.8643085666
 20
48.1111638626
 10
-148.3978218385
 20
48.5546944876
 10
-148.845918961
 20
49.0862094388
 10
-149.1844429021
 20
49.6770546077
 10
-149.3951437487
 20
50.2953773783
 10
-149.4666625635
 20
50.90784381
  0
LWPOLYLINE
  5
334
330
2DF
100
AcDbEntity
  8
0
  6
Continuous
 62
     7
370
    25
100
AcDbPolyline
 90
       22
 70
   128
 43
0.0
 10
-148.3611399114
 20
50.6073864417
 10
-148.292378534
 20
51.0308439428
 10
-148.0922041519
 20
51.3792996486
 10
-147.7784031375
 20
51.6217917405
 10
-147.3788580879
 20
51.736773732
 10
-146.9290703342
 20
51.7140289685
 10
-146.4690054922
 20
51.5555784221
 10
-146.039542342
 20
51.2755011191
 10
-145.6788405692
 20
50.898683157
 10
-145.4189501092
 20
50.4586064655
 10
-145.28296337
 20
49.9943737898
 10
-145.28296337
 20
49.5472342403
 10
-145.4189501092
 20
49.1569181283
 10
-145.6788405692
 20
48.8581067533
 10
-146.039542342
 20
48.6773508171
 10
-146.4690054922
 20
48.630711278
 10
-146.9290703342
 20
48.7223322637
 10
-147.3788580879
 20
48.9440728475
 10
-147.7784031375
 20
49.2762304055
 10
-148.0922041519
 20
49.689291281
 10
-148.292378534
 20
50.1465532025
 10
-148.3611399114
 20
50.6073864417
  0
LWPOLYLINE
  5
335
330
2DF
100
AcDbEntity
  8
0
  6
Continuous
 62
     7
370
    25
100
AcDbPolyline
 90
       28
 70
   128
 43
0.0
 10
-121.3703158973
 20
56.4315290796
 10
-115.9610340341
 20
56.1619168818
 10
-110.5698395353
 20
55.8090561823
 10
-105.2015611662
 20
55.3732630301
 10
-99.8610071666
 20
54.8549277547
 10
-94.5529609443
 20
54.2545146168
 10
-89.2821767906
 20
53.5725613922
 10
-84.053375622
 20
52.8096788902
 10
-78.871240752
 20
51.9665504068
 10
-73.7404136959
 20
51.043931112
 10
-68.6654900141
 20
50.0426473741
 10
-63.6510151955
 20
48.9635960193
 10
-58.7014805865
 20
47.8077435283
 10
-53.8213193681
 20
46.5761251708
 10
-49.014902585
 20
45.2698440782
 10
-44.286535231
 20
43.8900702556
 10
-39.6404523928
 20
42.4380395336
 10
-35.0808154566
 20
40.9150524619
 10
-30.6117083814
 20
39.3224731438
 10
-26.2371340404
 20
37.661728015
 10
-21.9610106364
 20
35.9343045656
 10
-17.7871681919
 20
34.1417500078
 10
-13.7193451186
 20
32.2856698902
 10
-9.7611848693
 20
30.3677266599
 10
-5.9162326745
 20
28.3896381733
 10
-2.1879323668
 20
26.3531761573
 10
1.4203767035
 20
24.2601646228
 10
3.7713381825
 20
22.8258108794
  0
LWPOLYLINE
  5
337
330
2DF
100
AcDbEntity
  8
0
  6
Continuous
 62
     7
370
    25
100
AcDbPolyline
 90
       28
 70
   128
 43
0.0
 10
5.5298513375
 20
23.9925926532
 10
3.145798197
 20
25.4373298942
 10
-0.4988687437
 20
27.5380560138
 10
-4.2629164466
 20
29.5821781162
 10
-8.1430324592
 20
31.5678973247
 10
-12.1358021861
 20
33.4934661586
 10
-16.2377118941
 20
35.3571900711
 10
-20.4451518039
 20
37.1574289404
 10
-24.7544192673
 20
38.8925985129
 10
-29.1617220253
 20
40.5611717978
 10
-33.6631815455
 20
42.1616804103
 10
-38.2548364354
 20
43.6927158646
 10
-42.9326459283
 20
45.1529308125
 10
-47.6924934393
 20
46.5410402298
 10
-52.5301901882
 20
47.8558225468
 10
-57.4414788855
 20
49.0961207236
 10
-62.4220374793
 20
50.2608432678
 10
-67.467482958
 20
51.3489651957
 10
-72.5733752086
 20
52.3595289338
 10
-77.7352209229
 20
53.2916451617
 10
-82.9484775527
 20
54.1444935947
 10
-88.2085573069
 20
54.9173237057
 10
-93.5108311888
 20
55.6094553856
 10
-98.8506330699
 20
56.2202795419
 10
-104.2232637961
 20
56.7492586347
 10
-109.6239953234
 20
57.1959271496
 10
-115.0480748781
 20
57.5598920076
 10
-120.4907291398
 20
57.8408329109
  0
LWPOLYLINE
  5
339
330
2DF
100
AcDbEntity
  8
0
  6
Continuous
 62
     7
370
    25
100
AcDbPolyline
 90
       27
 70
   128
 43
0.0
 10
-121.3703158973
 20
39.2881830656
 10
-115.9610340341
 20
39.0185708678
 10
-110.5698395353
 20
38.6657101683
 10
-105.2015611662
 20
38.229917016
 10
-99.8610071666
 20
37.7115817406
 10
-94.5529609443
 20
37.1111686027
 10
-89.2821767906
 20
36.4292153781
 10
-84.053375622
 20
35.6663328762
 10
-78.871240752
 20
34.8232043927
 10
-73.7404136959
 20
33.9005850979
 10
-68.6654900141
 20
32.89930136
 10
-63.6510151955
 20
31.8202500052
 10
-58.7014805865
 20
30.6643975142
 10
-53.8213193681
 20
29.4327791567
 10
-49.014902585
 20
28.1264980642
 10
-44.286535231
 20
26.7467242415
 10
-39.6404523928
 20
25.2946935196
 10
-35.0808154566
 20
23.7717064478
 10
-30.6117083814
 20
22.1791271298
 10
-26.2371340404
 20
20.518382001
 10
-21.9610106364
 20
18.7909585515
 10
-17.7871681919
 20
16.9984039937
 10
-13.7193451186
 20
15.1423238762
 10
-9.7611848693
 20
13.2243806459
 10
-5.9162326745
 20
11.2462921593
 10
-2.1879323668
 20
9.2098301433
 10
0.0
 20
7.9558238181
  0
LWPOLYLINE
  5
344
330
2DF
100
AcDbEntity
  8
0
  6
Continuous
 62
     8
370
    25
100
AcDbPolyline
 90
        3
 70
   128
 43
0.0
 10
-120.0254613332
 20
59.8720517727
 10
-120.0035491106
 20
59.9274147204
 10
-120.0014726467
 20
59.9508597165
  0
LINE
  5
346
330
2DF
100
AcDbEntity
  8
0
  6
Continuous
 62
     7
370
    25
100
AcDbLine
 10
38.8527255094
 20
-7.9367619184
 30
0.0
 11
38.8527255094
 21
11.7780859978
 31
0.0
  0
LINE
  5
347
330
2DF
100
AcDbEntity
  8
0
  6
Continuous
 62
     7
370
    25
100
AcDbLine
 10
25.0903056396
 20
1.8896002279
 30
0.0
 11
26.773929347
 21
3.5328685803
 31
0.0
  0
LINE
  5
348
330
2DF
100
AcDbEntity
  8
0
  6
Continuous
 62
     7
370
    25
100
AcDbLine
 10
22.9892085021
 20
8.2230698212
 30
0.0
 11
20.8994366877
 21
6.1833884654
 31
0.0
  0
LINE
  5
349
330
2DF
100
AcDbEntity
  8
0
  6
Continuous
 62
     7
370
    25
100
AcDbLine
 10
37.1427996579
 20
-9.8163703758
 30
0.0
 11
38.7019645888
 21
-8.2945776048
 31
0.0
  0
LINE
  5
34A
330
2DF
100
AcDbEntity
  8
0
  6
Continuous
 62
     7
370
    25
100
AcDbLine
 10
7.7186599603
 20
25.4448774997
 30
0.0
 11
0.1347569467
 21
20.4129220747
 31
0.0
  0
LINE
  5
34B
330
2DF
100
AcDbEntity
  8
0
  6
Continuous
 62
     7
370
    25
100
AcDbLine
 10
10.9396156927
 20
5.7354545429
 30
0.0
 11
14.339990729
 21
9.0543248216
 31
0.0
  0
LINE
  5
34C
330
2DF
100
AcDbEntity
  8
0
  6
Continuous
 62
     7
370
    25
100
AcDbLine
 10
10.8298906623
 20
14.012564361
 30
0.0
 11
6.7487467408
 21
10.0292427803
 31
0.0
  0
LINE
  5
34D
330
2DF
100
AcDbEntity
  8
0
  6
Continuous
 62
     7
370
    25
100
AcDbLine
 10
-130.5672837757
 20
44.1939976923
 30
0.0
 11
-126.4849357549
 21
48.1784945108
 31
0.0
  0
LINE
  5
34E
330
2DF
100
AcDbEntity
  8
0
  6
Continuous
 62
     7
370
    25
100
AcDbLine
 10
-131.361822446
 20
51.8027084038
 30
0.0
 11
-134.7581527276
 21
48.4877859297
 31
0.0
  0
LINE
  5
34F
330
2DF
100
AcDbEntity
  8
0
  6
Continuous
 62
     7
370
    25
100
AcDbLine
 10
-120.0014726467
 20
57.819010209
 30
0.0
 11
-120.0014726467
 21
59.9508597165
 31
0.0
  0
LINE
  5
350
330
2DF
100
AcDbEntity
  8
0
  6
Continuous
 62
     7
370
    25
100
AcDbLine
 10
-123.7574724758
 20
34.0747925635
 30
0.0
 11
-120.5264430901
 21
39.2516577825
 31
0.0
  0
LINE
  5
351
330
2DF
100
AcDbEntity
  8
0
  6
Continuous
 62
     7
370
    25
100
AcDbLine
 10
-144.7179737225
 20
48.0398520072
 30
0.0
 11
-142.6275126337
 21
50.0802061159
 31
0.0
  0
LINE
  5
352
330
2DF
100
AcDbEntity
  8
0
  6
Continuous
 62
     7
370
    25
100
AcDbLine
 10
-147.2274797371
 20
53.974702016
 30
0.0
 11
-148.9088426744
 21
52.3336402447
 31
0.0
  0
LINE
  5
353
330
2DF
100
AcDbEntity
  8
0
  6
Continuous
 62
     7
370
    25
100
AcDbLine
 10
-159.221754704
 20
65.7374961988
 30
0.0
 11
-160.8711281638
 21
64.1276571381
 31
0.0
  0
LINE
  5
354
330
2DF
100
AcDbEntity
  8
0
  6
Continuous
 62
     7
370
    25
100
AcDbLine
 10
36.7033520496
 20
10.5968305875
 30
0.0
 11
38.3527255094
 21
12.2066696481
 31
0.0
  0
LINE
  5
355
330
2DF
100
AcDbEntity
  8
0
  6
Continuous
 62
     7
370
    25
100
AcDbLine
 10
38.7949345703
 20
11.6579030504
 30
0.0
 11
37.3789088049
 21
10.2758184932
 31
0.0
  0
LINE
  5
356
330
2DF
100
AcDbEntity
  8
0
  6
Continuous
 62
     7
370
    25
100
AcDbLine
 10
36.7033520496
 20
-9.9751846294
 30
0.0
 11
36.7033520496
 21
10.5968305875
 31
0.0
  0
LINE
  5
357
330
2DF
100
AcDbEntity
  8
0
  6
Continuous
 62
     7
370
    25
100
AcDbLine
 10
37.3789088049
 20
10.2758184932
 30
0.0
 11
37.3789088049
 21
-9.439029423
 31
0.0
  0
LINE
  5
358
330
2DF
100
AcDbEntity
  8
0
  6
Continuous
 62
     7
370
    25
100
AcDbLine
 10
7.9950973667
 20
25.4568289857
 30
0.0
 11
0.4490308484
 21
20.4499782538
 31
0.0
  0
LINE
  5
359
330
2DF
100
AcDbEntity
  8
0
  6
Continuous
 62
     7
370
    25
100
AcDbLine
 10
0.4490308484
 20
20.4499782538
 30
0.0
 11
36.7033520496
 21
10.5968305875
 31
0.0
  0
LINE
  5
35A
330
2DF
100
AcDbEntity
  8
0
  6
Continuous
 62
     7
370
    25
100
AcDbLine
 10
35.3767248671
 20
9.2430448281
 30
0.0
 11
35.3767248671
 21
-7.900301186
 31
0.0
  0
LINE
  5
35B
330
2DF
100
AcDbEntity
  8
0
  6
Continuous
 62
     7
370
    25
100
AcDbLine
 10
1.7961233936
 20
18.3695327633
 30
0.0
 11
35.3767248671
 21
9.2430448281
 31
0.0
  0
LINE
  5
35C
330
2DF
100
AcDbEntity
  8
0
  6
Continuous
 62
     7
370
    25
100
AcDbLine
 10
1.7961233936
 20
18.3695327633
 30
0.0
 11
1.7961233936
 21
1.2261867493
 31
0.0
  0
LINE
  5
35D
330
2DF
100
AcDbEntity
  8
0
  6
Continuous
 62
     7
370
    25
100
AcDbLine
 10
1.7961233936
 20
1.2261867493
 30
0.0
 11
35.3767248671
 21
-7.900301186
 31
0.0
  0
LINE
  5
35E
330
2DF
100
AcDbEntity
  8
0
  6
Continuous
 62
     7
370
    25
100
AcDbLine
 10
0.0
 20
20.1434315665
 30
0.0
 11
0.0
 21
0.4285836504
 31
0.0
  0
LINE
  5
35F
330
2DF
100
AcDbEntity
  8
0
  6
Continuous
 62
     7
370
    25
100
AcDbLine
 10
0.4490308484
 20
-0.122036963
 30
0.0
 11
36.7033520496
 21
-9.9751846294
 31
0.0
  0
LINE
  5
360
330
2DF
100
AcDbEntity
  8
0
  6
Continuous
 62
     7
370
    25
100
AcDbLine
 10
38.7949345703
 20
-8.0569448657
 30
0.0
 11
38.7949345703
 21
11.6579030504
 31
0.0
  0
LINE
  5
361
330
2DF
100
AcDbEntity
  8
0
  6
Continuous
 62
     7
370
    25
100
AcDbLine
 10
37.3789088049
 20
-9.439029423
 30
0.0
 11
38.7949345703
 21
-8.0569448657
 31
0.0
  0
LINE
  5
362
330
2DF
100
AcDbEntity
  8
0
  6
Continuous
 62
     7
370
    25
100
AcDbLine
 10
8.0761021652
 20
16.6627690969
 30
0.0
 11
8.0761021652
 21
11.3247823664
 31
0.0
  0
LINE
  5
363
330
2DF
100
AcDbEntity
  8
0
  6
Continuous
 62
     7
370
    25
100
AcDbLine
 10
8.0761021652
 20
5.6296998426
 30
0.0
 11
8.0761021652
 21
5.3929822887
 31
0.0
  0
LINE
  5
364
330
2DF
100
AcDbEntity
  8
0
  6
Continuous
 62
     7
370
    25
100
AcDbLine
 10
8.0761021652
 20
5.3929822887
 30
0.0
 11
1.7961233936
 21
1.2261867493
 31
0.0
  0
LINE
  5
365
330
2DF
100
AcDbEntity
  8
0
  6
Continuous
 62
     7
370
    25
100
AcDbLine
 10
-123.6361822638
 20
54.0868318411
 30
0.0
 11
-123.6361822638
 21
34.3719839249
 31
0.0
  0
LINE
  5
366
330
2DF
100
AcDbEntity
  8
0
  6
Continuous
 62
     7
370
    25
100
AcDbLine
 10
-124.3455412718
 20
33.794453715
 30
0.0
 11
-124.3455412718
 21
54.3664689319
 31
0.0
  0
LINE
  5
367
330
2DF
100
AcDbEntity
  8
0
  6
Continuous
 62
     7
370
    25
100
AcDbLine
 10
-120.0254613332
 20
59.8720517727
 30
0.0
 11
-123.6361822638
 21
54.0868318411
 31
0.0
  0
LINE
  5
368
330
2DF
100
AcDbEntity
  8
0
  6
Continuous
 62
     7
370
    25
100
AcDbLine
 10
-124.2652073984
 20
54.3490594847
 30
0.0
 11
-120.5014726467
 21
60.3794433669
 31
0.0
  0
LINE
  5
369
330
2DF
100
AcDbEntity
  8
0
  6
Continuous
 62
     7
370
    25
100
AcDbLine
 10
-158.8725156246
 20
65.8082641627
 30
0.0
 11
-160.5218890845
 21
64.198425102
 31
0.0
  0
LINE
  5
36A
330
2DF
100
AcDbEntity
  8
0
  6
Continuous
 62
     7
370
    25
100
AcDbLine
 10
-124.3455412718
 20
54.3664689319
 30
0.0
 11
-160.5218890845
 21
64.198425102
 31
0.0
  0
LINE
  5
36B
330
2DF
100
AcDbEntity
  8
0
  6
Continuous
 62
     7
370
    25
100
AcDbLine
 10
-125.6146604284
 20
52.9970537233
 30
0.0
 11
-125.6146604284
 21
35.8537077093
 31
0.0
  0
LINE
  5
36C
330
2DF
100
AcDbEntity
  8
0
  6
Continuous
 62
     7
370
    25
100
AcDbLine
 10
-125.6146604284
 20
52.9970537233
 30
0.0
 11
-159.1952619019
 21
62.1235416586
 31
0.0
  0
LINE
  5
36D
330
2DF
100
AcDbEntity
  8
0
  6
Continuous
 62
     7
370
    25
100
AcDbLine
 10
-159.1952619019
 20
62.1235416586
 30
0.0
 11
-159.1952619019
 21
44.9801956445
 31
0.0
  0
LINE
  5
36E
330
2DF
100
AcDbEntity
  8
0
  6
Continuous
 62
     7
370
    25
100
AcDbLine
 10
-125.6146604284
 20
35.8537077093
 30
0.0
 11
-159.1952619019
 21
44.9801956445
 31
0.0
  0
LINE
  5
36F
330
2DF
100
AcDbEntity
  8
0
  6
Continuous
 62
     7
370
    25
100
AcDbLine
 10
-160.9640981453
 20
63.890024399
 30
0.0
 11
-160.9640981453
 21
44.1751764828
 31
0.0
  0
LINE
  5
370
330
2DF
100
AcDbEntity
  8
0
  6
Continuous
 62
     7
370
    25
100
AcDbLine
 10
-124.3455412718
 20
33.794453715
 30
0.0
 11
-160.5218890845
 21
43.6264098851
 31
0.0
  0
LINE
  5
371
330
2DF
100
AcDbEntity
  8
0
  6
Continuous
 62
     7
370
    25
100
AcDbLine
 10
-158.1937303135
 20
61.8513468331
 30
0.0
 11
-158.1937303135
 21
45.9577211782
 31
0.0
  0
LINE
  5
372
330
2DF
100
AcDbEntity
  8
0
  6
Continuous
 62
     7
370
    25
100
AcDbLine
 10
-159.1952619019
 20
44.9801956445
 30
0.0
 11
-158.1937303135
 21
45.9577211782
 31
0.0
  0
LINE
  5
373
330
2DF
100
AcDbEntity
  8
0
  6
Continuous
 62
     7
370
    25
100
AcDbLine
 10
-120.4907291398
 20
57.8408329109
 30
0.0
 11
-121.3703158973
 21
56.4315290796
 31
0.0
  0
LINE
  5
374
330
2DF
100
AcDbEntity
  8
0
  6
Continuous
 62
     7
370
    25
100
AcDbLine
 10
-121.3703158973
 20
56.4315290796
 30
0.0
 11
-121.3703158973
 21
39.2881830656
 31
0.0
  0
LINE
  5
375
330
2DF
100
AcDbEntity
  8
0
  6
Continuous
 62
     8
370
    25
100
AcDbLine
 10
-120.0254613332
 20
57.8200959609
 30
0.0
 11
-120.0254613332
 21
59.8720517727
 31
0.0
  0
LINE
  5
376
330
2DF
100
AcDbEntity
  8
0
  6
Continuous
 62
     8
370
    25
100
AcDbLine
 10
-123.6361822638
 20
34.3719839249
 30
0.0
 11
-120.588907406
 21
39.2544313872
 31
0.0
  0
ARC
  5
377
330
2DF
100
AcDbEntity
  8
0
  6
Continuous
 62
     7
370
    25
100
AcDbCircle
 10
38.3527255094
 20
11.7780859978
 30
0.0
 40
0.5000000000000071
100
AcDbArc
 50
0.0
 51
72.1812432706
  0
ARC
  5
378
330
2DF
100
AcDbEntity
  8
0
  6
Continuous
 62
     7
370
    25
100
AcDbCircle
 10
38.3527255094
 20
-7.9367619184
 30
0.0
 40
0.5000000000000284
100
AcDbArc
 50
314.305033619
 51
360.0
  0
ARC
  5
379
330
2DF
100
AcDbEntity
  8
0
  6
Continuous
 62
     7
370
    25
100
AcDbCircle
 10
7.9950973667
 20
25.0282453353
 30
0.0
 40
0.499999999999978
100
AcDbArc
 50
59.7140284827
 51
123.5644615617
  0
ARC
  5
37A
330
2DF
100
AcDbEntity
  8
0
  6
Continuous
 62
     7
370
    25
100
AcDbCircle
 10
-120.5014726467
 20
59.9508597165
 30
0.0
 40
0.5000000000000271
100
AcDbArc
 50
0.0
 51
86.3563276244
  0
ARC
  5
37B
330
2DF
100
AcDbEntity
  8
0
  6
Continuous
 62
     7
370
    25
100
AcDbCircle
 10
-158.8725156246
 20
65.3796805123
 30
0.0
 40
0.5000000000000349
100
AcDbArc
 50
77.2765069674
 51
134.305033619
  0
ARC
  5
37C
330
2DF
100
AcDbEntity
  8
0
  6
Continuous
 62
     7
370
    25
100
AcDbCircle
 10
38.1887484729
 20
11.6219785448
 30
0.0
 40
0.607249664308258
100
AcDbArc
 50
3.391562315
 51
74.3338098233
  0
ARC
  5
37D
330
2DF
100
AcDbEntity
  8
0
  6
Continuous
 62
     7
370
    25
100
AcDbCircle
 10
36.1995329771
 20
8.6652173053
 30
0.0
 40
1.996237343052091
100
AcDbArc
 50
53.7862432903
 51
75.3813490436
  0
ARC
  5
37E
330
2DF
100
AcDbEntity
  8
0
  6
Continuous
 62
     7
370
    25
100
AcDbCircle
 10
36.7164793332
 20
-9.2980459239
 30
0.0
 40
0.6772659388974194
100
AcDbArc
 50
268.88938007
 51
347.98512419
  0
ARC
  5
37F
330
2DF
100
AcDbEntity
  8
0
  6
Continuous
 62
     7
370
    25
100
AcDbCircle
 10
84.2263756417
 20
158.7099166866
 30
0.0
 40
153.5174034735859
100
AcDbArc
 50
240.2270379532
 51
252.6134210282
  0
ARC
  5
380
330
2DF
100
AcDbEntity
  8
0
  6
Continuous
 62
     7
370
    25
100
AcDbCircle
 10
0.6112240446
 20
0.4686340398
 30
0.0
 40
0.6125347879430094
100
AcDbArc
 50
183.748940511
 51
254.6455144133
  0
ARC
  5
381
330
2DF
100
AcDbEntity
  8
0
  6
Continuous
 62
     7
370
    25
100
AcDbCircle
 10
0.3279644801
 20
20.1451723076
 30
0.0
 40
0.3279690997219517
100
AcDbArc
 50
68.3374386504
 51
180.3041066625
  0
ARC
  5
382
330
2DF
100
AcDbEntity
  8
0
  6
Continuous
 62
     7
370
    25
100
AcDbCircle
 10
83.7296531129
 20
140.6561947316
 30
0.0
 40
154.9825680886726
100
AcDbArc
 50
240.7814451219
 51
251.8208342345
  0
ARC
  5
383
330
2DF
100
AcDbEntity
  8
0
  6
Continuous
 62
     7
370
    25
100
AcDbCircle
 10
-124.4108808749
 20
53.1140628531
 30
0.0
 40
1.243558379005188
100
AcDbArc
 50
51.4667106153
 51
83.2727861756
  0
ARC
  5
384
330
2DF
100
AcDbEntity
  8
0
  6
Continuous
 62
     7
370
    25
100
AcDbCircle
 10
-124.2959570393
 20
34.43955718
 30
0.0
 40
0.6632261296763401
100
AcDbArc
 50
272.6573990032
 51
354.1522324615
  0
ARC
  5
385
330
2DF
100
AcDbEntity
  8
0
  6
Continuous
 62
     7
370
    25
100
AcDbCircle
 10
-124.1333854719
 20
34.5793716413
 30
0.0
 40
0.8130843956012532
100
AcDbArc
 50
254.8749165247
 51
260.6696954088
  0
ARC
  5
386
330
2DF
100
AcDbEntity
  8
0
  6
Continuous
 62
     7
370
    25
100
AcDbCircle
 10
-124.1333854719
 20
55.1513868581
 30
0.0
 40
0.8130843955987278
100
AcDbArc
 50
254.8749165247
 51
260.6696954088
  0
ARC
  5
387
330
2DF
100
AcDbEntity
  8
0
  6
Continuous
 62
     7
370
    25
100
AcDbCircle
 10
-120.5788079373
 20
59.8299092858
 30
0.0
 40
0.5549490548297737
100
AcDbArc
 50
4.3551987242
 51
81.9894373294
  0
ARC
  5
388
330
2DF
100
AcDbEntity
  8
0
  6
Continuous
 62
     7
370
    25
100
AcDbCircle
 10
-105.3724209783
 20
305.6301265435
 30
0.0
 40
245.7168813960169
100
AcDbArc
 50
257.4242223687
 51
266.4700046969
  0
ARC
  5
389
330
2DF
100
AcDbEntity
  8
0
  6
Continuous
 62
     7
370
    25
100
AcDbCircle
 10
-160.3579120479
 20
44.2111009884
 30
0.0
 40
0.6072496643083567
100
AcDbArc
 50
183.391562315
 51
254.3338098233
  0
ARC
  5
38A
330
2DF
100
AcDbEntity
  8
0
  6
Continuous
 62
     7
370
    25
100
AcDbCircle
 10
-160.6391015114
 20
63.8952561227
 30
0.0
 40
0.3250387407722396
100
AcDbArc
 50
68.8622980239
 51
180.9222550965
  0
ARC
  5
38B
330
2DF
100
AcDbEntity
  8
0
  6
Continuous
 62
     7
370
    25
100
AcDbCircle
 10
-105.6198946947
 20
287.6443903287
 30
0.0
 40
247.3387439055535
100
AcDbArc
 50
257.7276985218
 51
265.3631722679
  0
ARC
  5
38C
330
2DF
100
AcDbEntity
  8
0
  6
Continuous
 62
     8
370
    25
100
AcDbCircle
 10
38.4700208394
 20
12.0987926583
 30
0.0
 40
0.1593600933849839
100
AcDbArc
 50
77.0516755127
 51
137.3951290597
  0
ARC
  5
38D
330
2DF
100
AcDbEntity
  8
0
  6
Continuous
 62
     8
370
    25
100
AcDbCircle
 10
38.6858401614
 20
11.7843480697
 30
0.0
 40
0.1670027932313119
100
AcDbArc
 50
310.7870133927
 51
357.8510873129
  0
ARC
  5
38E
330
2DF
100
AcDbEntity
  8
0
  6
Continuous
 62
     8
370
    25
100
AcDbCircle
 10
8.1241757146
 20
25.2189714666
 30
0.0
 40
0.2706241291746326
100
AcDbArc
 50
62.8923068314
 51
118.4873947966
  0
ARC
  5
38F
330
2DF
100
AcDbEntity
  8
0
  6
Continuous
 62
     8
370
    25
100
AcDbCircle
 10
38.6858401614
 20
-7.9304998465
 30
0.0
 40
0.1670027932314569
100
AcDbArc
 50
310.7870133928
 51
357.8510873129
  0
ARC
  5
390
330
2DF
100
AcDbEntity
  8
0
  6
Continuous
 62
     8
370
    25
100
AcDbCircle
 10
38.4722746055
 20
-8.0677122252
 30
0.0
 40
0.322839571467024
100
AcDbArc
 50
315.3544713609
 51
1.9112857848
  0
ARC
  5
391
330
2DF
100
AcDbEntity
  8
0
  6
Continuous
 62
     8
370
    25
100
AcDbCircle
 10
7.8681622874
 20
25.1898634622
 30
0.0
 40
0.2956063346884068
100
AcDbArc
 50
64.5701423613
 51
120.3810221262
  0
ARC
  5
392
330
2DF
100
AcDbEntity
  8
0
  6
Continuous
 62
     8
370
    25
100
AcDbCircle
 10
-120.4105763126
 20
60.3807708024
 30
0.0
 40
0.0909060263721718
100
AcDbArc
 50
130.5474469837
 51
180.8366789351
  0
ARC
  5
393
330
2DF
100
AcDbEntity
  8
0
  6
Continuous
 62
     8
370
    25
100
AcDbCircle
 10
-158.7670807929
 20
65.7439863997
 30
0.0
 40
0.1234833370935534
100
AcDbArc
 50
87.7700003907
 51
148.6316570727
  0
ARC
  5
394
330
2DF
100
AcDbEntity
  8
0
  6
Continuous
 62
     8
370
    25
100
AcDbCircle
 10
-158.9855288495
 20
65.4688537334
 30
0.0
 40
0.3577309442424848
100
AcDbArc
 50
71.583829316
 51
131.326192755
  0
VIEWPORT
  5
4F6
330
2DF
100
AcDbEntity
  8
0
100
AcDbViewport
 10
0.0
 20
0.0
 30
0.0
 40
205.6
 41
156.0
 68
     1
 69
     1
 12
-70.0
 22
12.75
 13
0.0
 23
0.0
 14
10.0
 24
10.0
 15
10.0
 25
10.0
 16
0.0
 26
0.0
 36
1.0
 17
0.0
 27
0.0
 37
0.0
 42
50.0
 43
0.0
 44
0.0
 45
173.360311284
 50
0.0
 51
0.0
 72
   100
 90
   557152
  1

281
     0
 71
     1
 74
     0
110
0.0
120
0.0
130
0.0
111
1.0
121
0.0
131
0.0
112
0.0
122
1.0
132
0.0
 79
     0
146
0.0
  0
ENDBLK
  5
2E2
330
2DF
100
AcDbEntity
  8
0
100
AcDbBlockEnd
  0
BLOCK
  5
397
330
395
100
AcDbEntity
  8
0
100
AcDbBlockBegin
  2
*Paper_Space6
 70
     0
 10
0.0
 20
0.0
 30
0.0
  3
*Paper_Space6
  1

  0
SPLINE
  5
39A
330
395
100
AcDbEntity
  8
0
  6
Continuous
 62
     7
370
    25
100
AcDbSpline
210
0.0
220
0.0
230
1.0
 70
     8
 71
     3
 72
     9
 73
     5
 74
     0
 42
0.000000001
 43
0.00000001
 40
0.0
 40
0.0
 40
0.0
 40
0.0
 40
0.5824454446487706
 40
1.0
 40
1.0
 40
1.0
 40
1.0
 10
11.57948564042464
 20
24.78929005020191
 30
0.0
 10
10.6572074414331
 20
25.03892699039324
 30
0.0
 10
9.073748926193629
 20
25.46752840273987
 30
0.0
 10
7.540351976033907
 20
25.91570223956776
 30
0.0
 10
6.900075094333033
 20
26.10283926672448
 30
0.0
  0
SPLINE
  5
3A5
330
395
100
AcDbEntity
  8
0
  6
Continuous
 62
     7
370
    25
100
AcDbSpline
210
0.0
220
0.0
230
1.0
 70
     8
 71
     3
 72
     9
 73
     5
 74
     0
 42
0.000000001
 43
0.00000001
 40
0.0
 40
0.0
 40
0.0
 40
0.0
 40
0.4038482864599497
 40
1.0
 40
1.0
 40
1.0
 40
1.0
 10
-164.3620974322415
 20
44.76641356217156
 30
0.0
 10
-164.919341681676
 20
44.81373168851294
 30
0.0
 10
-166.2991772984596
 20
44.93089976357438
 30
0.0
 10
-167.6647779474163
 20
45.06536174930414
 30
0.0
 10
-168.4788831143033
 20
45.14552149250294
 30
0.0
  0
SPLINE
  5
3C8
330
395
100
AcDbEntity
  8
0
  6
Continuous
 62
     7
370
    25
100
AcDbSpline
210
0.0
220
0.0
230
1.0
 70
     8
 71
     3
 72
    14
 73
    10
 74
     0
 42
0.000000001
 43
0.00000001
 40
0.0
 40
0.0
 40
0.0
 40
0.0
 40
0.1350808096799269
 40
0.2700851834755388
 40
0.407262664461825
 40
0.5495655389379356
 40
0.6975723863080082
 40
0.8496185201957972
 40
0.9999999999999999
 40
0.9999999999999999
 40
0.9999999999999999
 40
0.9999999999999999
 10
14.66830384502124
 20
11.99341900219216
 30
0.0
 10
14.64217696458651
 20
12.30859537519774
 30
0.0
 10
14.5899379876913
 20
12.93876977770592
 30
0.0
 10
14.18504285573591
 20
13.86438976834336
 30
0.0
 10
13.5870252424523
 20
14.65772502142491
 30
0.0
 10
12.82135781335757
 20
15.24905995147039
 30
0.0
 10
11.97106444856609
 20
15.55357144417613
 30
0.0
 10
11.11634940976243
 20
15.54265022582116
 30
0.0
 10
10.66292502365796
 20
15.23888145356157
 30
0.0
 10
10.43746072385646
 20
15.08783308554704
 30
0.0
  0
SPLINE
  5
3C9
330
395
100
AcDbEntity
  8
0
  6
Continuous
 62
     7
370
    25
100
AcDbSpline
210
0.0
220
0.0
230
1.0
 70
     8
 71
     3
 72
    10
 73
     6
 74
     0
 42
0.000000001
 43
0.00000001
 40
0.0
 40
0.0
 40
0.0
 40
0.0
 40
0.3161438097476526
 40
0.7470983173485805
 40
1.0
 40
1.0
 40
1.0
 40
1.0
 10
13.91286538128324
 20
10.20667204466252
 30
0.0
 10
14.05606199754353
 20
10.33595497401067
 30
0.0
 10
14.39445847332292
 20
10.64147118530386
 30
0.0
 10
14.62917648294085
 20
11.30825389407909
 30
0.0
 10
14.65774041556517
 20
11.8084412040353
 30
0.0
 10
14.66830384502124
 20
11.99341900219216
 30
0.0
  0
SPLINE
  5
3CA
330
395
100
AcDbEntity
  8
0
  6
Continuous
 62
     7
370
    25
100
AcDbSpline
210
0.0
220
0.0
230
1.0
 70
     8
 71
     3
 72
    14
 73
    10
 74
     0
 42
0.000000001
 43
0.00000001
 40
0.0
 40
0.0
 40
0.0
 40
0.0
 40
0.1402916600781604
 40
0.2805574775162547
 40
0.4215750417069691
 40
0.5643807987760281
 40
0.7092415227818019
 40
0.8556153749161326
 40
1.0
 40
1.0
 40
1.0
 40
1.0
 10
28.36360543024628
 20
8.98659504547864
 30
0.0
 10
28.33505115810016
 20
9.306916697633536
 30
0.0
 10
28.27794787369135
 20
9.947500996602898
 30
0.0
 10
27.83384636886957
 20
10.87236456433989
 30
0.0
 10
27.18040215829068
 20
11.64301630300442
 30
0.0
 10
26.35828998075597
 20
12.18417481833622
 30
0.0
 10
25.4674395110807
 20
12.4237819409712
 30
0.0
 10
24.59136183998127
 20
12.35354563957736
 30
0.0
 10
24.13295501145297
 20
12.03704899102622
 30
0.0
 10
23.90531969465612
 20
11.8798833242551
 30
0.0
  0
SPLINE
  5
3CB
330
395
100
AcDbEntity
  8
0
  6
Continuous
 62
     7
370
    25
100
AcDbSpline
210
0.0
220
0.0
230
1.0
 70
     8
 71
     3
 72
    10
 73
     6
 74
     0
 42
0.000000001
 43
0.00000001
 40
0.0
 40
0.0
 40
0.0
 40
0.0
 40
0.3058474913264908
 40
0.7352970343524744
 40
1.0
 40
1.0
 40
1.0
 40
1.0
 10
27.56949601403511
 20
7.16332457649865
 30
0.0
 10
27.7164493183539
 20
7.296006959046902
 30
0.0
 10
28.06974412023462
 20
7.614992614202749
 30
0.0
 10
28.32002661471735
 20
8.287478672587472
 30
0.0
 10
28.35157500228414
 20
8.793596014662164
 30
0.0
 10
28.36360543024627
 20
8.98659504547864
 30
0.0
  0
LWPOLYLINE
  5
3CC
330
395
100
AcDbEntity
  8
0
  6
Continuous
 62
     7
370
    25
100
AcDbPolyline
 90
       28
 70
   128
 43
0.0
 10
27.127016055
 20
7.8960257252
 10
27.0513734107
 20
8.5578359868
 10
26.8285233922
 20
9.2030280407
 10
26.4704799018
 20
9.7968194163
 10
25.9965451567
 20
10.3071986667
 10
25.4322691016
 20
10.7066511146
 10
24.8080720048
 20
10.973642175
 10
24.1576044934
 20
11.0937782908
 10
23.5159334391
 20
11.0605828929
 10
22.9176514947
 20
10.8758455537
 10
22.3950121947
 20
10.549525511
 10
21.9761911589
 20
10.0992147629
 10
21.6837671378
 20
9.5491896783
 10
21.5335047862
 20
8.9291022518
 10
21.5335047862
 20
8.2723815572
 10
21.6837671378
 20
7.614431577
 10
21.9761911589
 20
6.9907225651
 10
22.3950121947
 20
6.4348788356
 10
22.9176514947
 20
5.976866068
 10
23.5159334391
 20
5.641375849
 10
24.1576044934
 20
5.4464945432
 10
24.8080720048
 20
5.4027282523
 10
25.4322691016
 20
5.5124364283
 10
25.9965451567
 20
5.769704675
 10
26.4704799018
 20
6.1606635948
 10
26.8285233922
 20
6.6642364909
 10
27.0513734107
 20
7.2532756184
 10
27.127016055
 20
7.8960257252
  0
LWPOLYLINE
  5
3CD
330
395
100
AcDbEntity
  8
0
  6
Continuous
 62
     7
370
    25
100
AcDbPolyline
 90
       22
 70
   128
 43
0.0
 10
25.9577481216
 20
8.0433396379
 10
25.8850219106
 20
8.5388235053
 10
25.6733053206
 20
9.0086067394
 10
25.3414102998
 20
9.4109470382
 10
24.9188271772
 20
9.7100947005
 10
24.4431043178
 20
9.8794691437
 10
23.9565117852
 20
9.9040207052
 10
23.5022854614
 20
9.7815678712
 10
23.1207853487
 20
9.5229911131
 10
22.8459094061
 20
9.1512661108
 10
22.7020815675
 20
8.699422262
 10
22.7020815675
 20
8.2076078756
 10
22.8459094061
 20
7.719522818
 10
23.1207853487
 20
7.2785355885
 10
23.5022854614
 20
6.9238298378
 10
23.9565117852
 20
6.6869227284
 10
24.4431043178
 20
6.5888644966
 10
24.9188271772
 20
6.6383680466
 10
25.3414102998
 20
6.8310347708
 10
25.6733053206
 20
7.1497453852
 10
25.8850219106
 20
7.5661810531
 10
25.9577481216
 20
8.0433396379
  0
SPLINE
  5
3CF
330
395
100
AcDbEntity
  8
0
  6
Continuous
 62
     7
370
    25
100
AcDbSpline
210
0.0
220
0.0
230
1.0
 70
     8
 71
     3
 72
    13
 73
     9
 74
     0
 42
0.000000001
 43
0.00000001
 40
0.0
 40
0.0
 40
0.0
 40
0.0
 40
0.1310718945468355
 40
0.3281326703191538
 40
0.5250138571611118
 40
0.7195128275645258
 40
0.9104494052120369
 40
1.0
 40
1.0
 40
1.0
 40
1.0
 10
25.93086942287974
 20
7.849592410800514
 30
0.0
 10
25.81568699150143
 20
7.857174124265162
 30
0.0
 10
25.52733288696443
 20
7.876154607406503
 30
0.0
 10
25.07433411598067
 20
8.125934571384539
 30
0.0
 10
24.64253065048901
 20
8.541202401071757
 30
0.0
 10
24.34906093756463
 20
9.07125207708095
 30
0.0
 10
24.21165004825397
 20
9.552443689870291
 30
0.0
 10
24.23941252443267
 20
9.818124627781152
 30
0.0
 10
24.24827619628263
 20
9.902948064828763
 30
0.0
  0
LWPOLYLINE
  5
3D0
330
395
100
AcDbEntity
  8
0
  6
Continuous
 62
     7
370
    25
100
AcDbPolyline
 90
       28
 70
   128
 43
0.0
 10
12.1603865074
 20
9.7816438075
 10
12.0847438631
 20
10.4434540691
 10
11.8618938446
 20
11.088646123
 10
11.5038503542
 20
11.6824374986
 10
11.0299156091
 20
12.192816749
 10
10.465639554
 20
12.5922691969
 10
9.8414424573
 20
12.8592602573
 10
9.1909749458
 20
12.9793963731
 10
8.5493038915
 20
12.9462009751
 10
7.9510219472
 20
12.761463636
 10
7.4283826471
 20
12.4351435933
 10
7.0095616113
 20
11.9848328452
 10
6.7171375903
 20
11.4348077606
 10
6.5668752386
 20
10.8147203341
 10
6.5668752386
 20
10.1579996395
 10
6.7171375903
 20
9.5000496593
 10
7.0095616113
 20
8.8763406474
 10
7.4283826471
 20
8.3204969179
 10
7.9510219472
 20
7.8624841503
 10
8.5493038915
 20
7.5269939313
 10
9.1909749458
 20
7.3321126255
 10
9.8414424573
 20
7.2883463346
 10
10.465639554
 20
7.3980545106
 10
11.0299156091
 20
7.6553227573
 10
11.5038503542
 20
8.0462816771
 10
11.8618938446
 20
8.5498545732
 10
12.0847438631
 20
9.1388937006
 10
12.1603865074
 20
9.7816438075
  0
LWPOLYLINE
  5
3D1
330
395
100
AcDbEntity
  8
0
  6
Continuous
 62
     7
370
    25
100
AcDbPolyline
 90
       22
 70
   128
 43
0.0
 10
10.991118574
 20
9.9289577201
 10
10.918392363
 20
10.4244415876
 10
10.706675773
 20
10.8942248217
 10
10.3747807522
 20
11.2965651205
 10
9.9521976296
 20
11.5957127828
 10
9.4764747702
 20
11.765087226
 10
8.9898822376
 20
11.7896387875
 10
8.5356559139
 20
11.6671859534
 10
8.1541558011
 20
11.4086091954
 10
7.8792798585
 20
11.0368841931
 10
7.7354520199
 20
10.5850403443
 10
7.7354520199
 20
10.0932259578
 10
7.8792798585
 20
9.6051409002
 10
8.1541558011
 20
9.1641536708
 10
8.5356559139
 20
8.8094479201
 10
8.9898822376
 20
8.5725408107
 10
9.4764747702
 20
8.4744825789
 10
9.9521976296
 20
8.5239861289
 10
10.3747807522
 20
8.7166528531
 10
10.706675773
 20
9.0353634675
 10
10.918392363
 20
9.4517991354
 10
10.991118574
 20
9.9289577201
  0
SPLINE
  5
3E8
330
395
100
AcDbEntity
  8
0
  6
Continuous
 62
     7
370
    25
100
AcDbSpline
210
0.0
220
0.0
230
1.0
 70
     8
 71
     3
 72
    17
 73
    13
 74
     0
 42
0.000000001
 43
0.00000001
 40
0.0
 40
0.0
 40
0.0
 40
0.0
 40
0.060644273569825
 40
0.1678004894984458
 40
0.2792518832534254
 40
0.3937449208253921
 40
0.5082561228547438
 40
0.6191360929304615
 40
0.7243832204944358
 40
0.825095046399809
 40
0.9245916379951614
 40
1.0
 40
1.0
 40
1.0
 40
1.0
 10
-139.6705512546965
 20
33.50613273935315
 30
0.0
 10
-139.5328977013508
 20
33.63316259702157
 30
0.0
 10
-139.1520153480314
 20
33.98464957250876
 30
0.0
 10
-138.2925227943181
 20
34.28055073298808
 30
0.0
 10
-137.2208778102837
 20
34.35534348243597
 30
0.0
 10
-136.1415284061006
 20
34.08055068562497
 30
0.0
 10
-135.216493381695
 20
33.48883109918449
 30
0.0
 10
-134.5763052342067
 20
32.65884972520528
 30
0.0
 10
-134.2911523844557
 20
31.7139076560076
 30
0.0
 10
-134.3700492125012
 20
30.78202388155143
 30
0.0
 10
-134.7093785210465
 20
29.99042555974083
 30
0.0
 10
-135.111400939251
 20
29.62292612802917
 30
0.0
 10
-135.2847285175844
 20
29.46448275857245
 30
0.0
  0
SPLINE
  5
3E9
330
395
100
AcDbEntity
  8
0
  6
Continuous
 62
     7
370
    25
100
AcDbSpline
210
0.0
220
0.0
230
1.0
 70
     8
 71
     3
 72
    17
 73
    13
 74
     0
 42
0.000000001
 43
0.00000001
 40
0.0
 40
0.0
 40
0.0
 40
0.0
 40
0.0681759769792103
 40
0.1754080402303216
 40
0.284183166933914
 40
0.3940944932874218
 40
0.5040806482720054
 40
0.6127997411628694
 40
0.7194071194220628
 40
0.8241861146376679
 40
0.9284319363054335
 40
1.0
 40
1.0
 40
1.0
 40
1.0
 10
-155.9490211217191
 20
34.23519411229578
 30
0.0
 10
-155.798759088357
 20
34.3698522115244
 30
0.0
 10
-155.412154158572
 20
34.71631022112553
 30
0.0
 10
-154.5601666902975
 20
34.9713090131854
 30
0.0
 10
-153.5390297260129
 20
34.98121716797552
 30
0.0
 10
-152.5333136188641
 20
34.65575739600342
 30
0.0
 10
-151.6776864466852
 20
34.03959283562719
 30
0.0
 10
-151.0772740276654
 20
33.2046684622994
 30
0.0
 10
-150.7985491767973
 20
32.25380051385901
 30
0.0
 10
-150.8726914254317
 20
31.30916377003683
 30
0.0
 10
-151.2004350190995
 20
30.52306354281818
 30
0.0
 10
-151.5935550356403
 20
30.1750330986131
 30
0.0
 10
-151.7535812948031
 20
30.0333613248099
 30
0.0
  0
LWPOLYLINE
  5
3EA
330
395
100
AcDbEntity
  8
0
  6
Continuous
 62
     7
370
    25
100
AcDbPolyline
 90
       28
 70
   128
 43
0.0
 10
-143.1183950488
 20
29.3449314112
 10
-143.0427524045
 20
29.987681518
 10
-142.819902386
 20
30.5767206454
 10
-142.4618588956
 20
31.0802935415
 10
-141.9879241505
 20
31.4712524613
 10
-141.4236480954
 20
31.728520708
 10
-140.7994509986
 20
31.838228884
 10
-140.1489834872
 20
31.7944625931
 10
-139.5073124329
 20
31.5995812873
 10
-138.9090304885
 20
31.2640910684
 10
-138.3863911885
 20
30.8060783007
 10
-137.9675701527
 20
30.2502345713
 10
-137.6751461316
 20
29.6265255593
 10
-137.52488378
 20
28.9685755792
 10
-137.52488378
 20
28.3118548845
 10
-137.6751461316
 20
27.6917674581
 10
-137.9675701527
 20
27.1417423734
 10
-138.3863911885
 20
26.6914316253
 10
-138.9090304885
 20
26.3651115827
 10
-139.5073124329
 20
26.1803742435
 10
-140.1489834872
 20
26.1471788455
 10
-140.7994509986
 20
26.2673149613
 10
-141.4236480954
 20
26.5343060217
 10
-141.9879241505
 20
26.9337584696
 10
-142.4618588956
 20
27.4441377201
 10
-142.819902386
 20
28.0379290956
 10
-143.0427524045
 20
28.6831211495
 10
-143.1183950488
 20
29.3449314112
  0
LWPOLYLINE
  5
3EB
330
395
100
AcDbEntity
  8
0
  6
Continuous
 62
     7
370
    25
100
AcDbPolyline
 90
       22
 70
   128
 43
0.0
 10
-141.9491271154
 20
29.1976174985
 10
-141.8764009044
 20
29.6747760833
 10
-141.6646843144
 20
30.0912117511
 10
-141.3327892936
 20
30.4099223655
 10
-140.910206171
 20
30.6025890897
 10
-140.4344833115
 20
30.6520926397
 10
-139.947890779
 20
30.5540344079
 10
-139.4936644552
 20
30.3171272985
 10
-139.1121643425
 20
29.9624215478
 10
-138.8372883999
 20
29.5214343184
 10
-138.6934605613
 20
29.0333492608
 10
-138.6934605613
 20
28.5415348743
 10
-138.8372883999
 20
28.0896910255
 10
-139.1121643425
 20
27.7179660232
 10
-139.4936644552
 20
27.4593892652
 10
-139.947890779
 20
27.3369364311
 10
-140.4344833115
 20
27.3614879927
 10
-140.910206171
 20
27.5308624359
 10
-141.3327892936
 20
27.8300100981
 10
-141.6646843144
 20
28.2323503969
 10
-141.8764009044
 20
28.702133631
 10
-141.9491271154
 20
29.1976174985
  0
LWPOLYLINE
  5
3ED
330
395
100
AcDbEntity
  8
0
  6
Continuous
 62
     7
370
    25
100
AcDbPolyline
 90
       28
 70
   128
 43
0.0
 10
-158.0850245964
 20
31.2305494934
 10
-158.009381952
 20
31.8732996003
 10
-157.7865319336
 20
32.4623387277
 10
-157.4284884432
 20
32.9659116238
 10
-156.9545536981
 20
33.3568705436
 10
-156.390277643
 20
33.6141387903
 10
-155.7660805462
 20
33.7238469663
 10
-155.1156130348
 20
33.6800806754
 10
-154.4739419805
 20
33.4851993696
 10
-153.8756600361
 20
33.1497091506
 10
-153.3530207361
 20
32.691696383
 10
-152.9341997003
 20
32.1358526535
 10
-152.6417756792
 20
31.5121436416
 10
-152.4915133276
 20
30.8541936614
 10
-152.4915133276
 20
30.1974729668
 10
-152.6417756792
 20
29.5773855403
 10
-152.9341997003
 20
29.0273604557
 10
-153.3530207361
 20
28.5770497076
 10
-153.8756600361
 20
28.2507296649
 10
-154.4739419805
 20
28.0659923258
 10
-155.1156130348
 20
28.0327969278
 10
-155.7660805462
 20
28.1529330436
 10
-156.390277643
 20
28.419924104
 10
-156.9545536981
 20
28.8193765519
 10
-157.4284884432
 20
29.3297558023
 10
-157.7865319336
 20
29.9235471779
 10
-158.009381952
 20
30.5687392318
 10
-158.0850245964
 20
31.2305494934
  0
LWPOLYLINE
  5
3EE
330
395
100
AcDbEntity
  8
0
  6
Continuous
 62
     7
370
    25
100
AcDbPolyline
 90
       22
 70
   128
 43
0.0
 10
-156.915756663
 20
31.0832355808
 10
-156.843030452
 20
31.5603941655
 10
-156.631313862
 20
31.9768298334
 10
-156.2994188412
 20
32.2955404478
 10
-155.8768357186
 20
32.488207172
 10
-155.4011128591
 20
32.537710722
 10
-154.9145203266
 20
32.4396524902
 10
-154.4602940028
 20
32.2027453808
 10
-154.0787938901
 20
31.8480396301
 10
-153.8039179475
 20
31.4070524007
 10
-153.6600901089
 20
30.9189673431
 10
-153.6600901089
 20
30.4271529566
 10
-153.8039179475
 20
29.9753091078
 10
-154.0787938901
 20
29.6035841055
 10
-154.4602940028
 20
29.3450073475
 10
-154.9145203266
 20
29.2225545134
 10
-155.4011128591
 20
29.2471060749
 10
-155.8768357186
 20
29.4164805181
 10
-156.2994188412
 20
29.7156281804
 10
-156.631313862
 20
30.1179684792
 10
-156.843030452
 20
30.5877517133
 10
-156.915756663
 20
31.0832355808
  0
SPLINE
  5
3EF
330
395
100
AcDbEntity
  8
0
  6
Continuous
 62
     7
370
    25
100
AcDbSpline
210
0.0
220
0.0
230
1.0
 70
     8
 71
     3
 72
    14
 73
    10
 74
     0
 42
0.000000001
 43
0.00000001
 40
0.0
 40
0.0
 40
0.0
 40
0.0
 40
0.0878103445773962
 40
0.2675561707615685
 40
0.4472633202711639
 40
0.628088076581095
 40
0.8114546581811213
 40
0.9975272276138136
 40
1.0
 40
1.0
 40
1.0
 40
1.0
 10
-155.5755432865405
 20
32.50365000972727
 30
0.0
 10
-155.5887287259673
 20
32.4159472782333
 30
0.0
 10
-155.6289044672176
 20
32.14871900214818
 30
0.0
 10
-155.5366237461463
 20
31.6837793941988
 30
0.0
 10
-155.2576629320145
 20
31.17890228885379
 30
0.0
 10
-154.8185158726755
 20
30.77110692350097
 30
0.0
 10
-154.275206874488
 20
30.53474677329385
 30
0.0
 10
-153.8641383935281
 20
30.44002682237308
 30
0.0
 10
-153.6713468830153
 20
30.48021715329648
 30
0.0
 10
-153.6688184221215
 20
30.48074424953519
 30
0.0
  0
LWPOLYLINE
  5
3F0
330
395
100
AcDbEntity
  8
0
  6
Continuous
 62
     7
370
    25
100
AcDbPolyline
 90
       28
 70
   128
 43
0.0
 10
-129.4720155541
 20
39.8612163425
 10
-124.0395492078
 20
39.9114061134
 10
-118.6050100157
 20
39.9073854592
 10
-113.1732655659
 20
39.8491579811
 10
-107.7491809431
 20
39.7367758321
 10
-102.3376143716
 20
39.5703396702
 10
-96.9434128635
 20
39.3499985684
 10
-91.5714078771
 20
39.0759498809
 10
-86.2264109903
 20
38.7484390667
 10
-80.9132095901
 20
38.3677594695
 10
-75.6365625852
 20
37.9342520549
 10
-70.4011961434
 20
37.4483051053
 10
-65.2117994584
 20
36.9103538719
 10
-60.0730205499
 20
36.3208801848
 10
-54.9894621005
 20
35.6804120217
 10
-49.9656773332
 20
34.9895230347
 10
-45.006165933
 20
34.2488320367
 10
-40.1153700168
 20
33.4590024472
 10
-35.2976701546
 20
32.6207416978
 10
-30.5573814462
 20
31.7348005987
 10
-25.8987496559
 20
30.8019726665
 10
-21.3259474099
 20
29.823093413
 10
-16.8430704589
 20
28.7990395972
 10
-12.4541340095
 20
27.7307284399
 10
-8.1630691282
 20
26.619116802
 10
-3.9737192203
 20
25.4652003278
 10
0.1101634127
 20
24.2700125529
 10
2.1907131992
 20
23.6326114359
  0
LWPOLYLINE
  5
3F2
330
395
100
AcDbEntity
  8
0
  6
Continuous
 62
     7
370
    25
100
AcDbPolyline
 90
       28
 70
   128
 43
0.0
 10
3.6536434716
 20
24.4537394941
 10
1.5391942692
 20
25.0972480052
 10
-2.5826215732
 20
26.2958890701
 10
-6.8092858098
 20
27.4532490397
 10
-11.1370788742
 20
28.5683094094
 10
-15.5621922047
 20
29.6400888993
 10
-20.0807315952
 20
30.6676443176
 10
-24.6887206222
 20
31.6500713909
 10
-29.3821041447
 20
32.5865055598
 10
-34.1567518724
 20
33.4761227396
 10
-39.0084620005
 20
34.3181400459
 10
-43.9329649074
 20
35.1118164832
 10
-48.9259269122
 20
35.8564535971
 10
-53.9829540884
 20
36.5513960891
 10
-59.0995961303
 20
37.1960323931
 10
-64.27135027
 20
37.7897952137
 10
-69.4936652396
 20
38.3321620252
 10
-74.7619452763
 20
38.8226555319
 10
-80.0715541671
 20
39.2608440876
 10
-85.4178193284
 20
39.6463420759
 10
-90.7960359184
 20
39.9788102494
 10
-96.2014709772
 20
40.257956028
 10
-101.6293675921
 20
40.4835337567
 10
-107.0749490834
 20
40.6553449218
 10
-112.5334232087
 20
40.7732383251
 10
-117.9999863793
 20
40.8371102178
 10
-123.4698278884
 20
40.8469043911
 10
-128.9381341439
 20
40.8026122257
  0
LWPOLYLINE
  5
3F4
330
395
100
AcDbEntity
  8
0
  6
Continuous
 62
     7
370
    25
100
AcDbPolyline
 90
       27
 70
   128
 43
0.0
 10
-129.4720155541
 20
21.0050355103
 10
-124.0395492078
 20
21.0552252812
 10
-118.6050100157
 20
21.051204627
 10
-113.1732655659
 20
20.9929771489
 10
-107.7491809431
 20
20.8805949999
 10
-102.3376143716
 20
20.714158838
 10
-96.9434128635
 20
20.4938177362
 10
-91.5714078771
 20
20.2197690487
 10
-86.2264109903
 20
19.8922582345
 10
-80.9132095901
 20
19.5115786373
 10
-75.6365625852
 20
19.0780712227
 10
-70.4011961434
 20
18.5921242731
 10
-65.2117994584
 20
18.0541730397
 10
-60.0730205499
 20
17.4646993526
 10
-54.9894621005
 20
16.8242311895
 10
-49.9656773332
 20
16.1333422025
 10
-45.006165933
 20
15.3926512045
 10
-40.1153700168
 20
14.602821615
 10
-35.2976701546
 20
13.7645608656
 10
-30.5573814462
 20
12.8786197665
 10
-25.8987496559
 20
11.9457918343
 10
-21.3259474099
 20
10.9669125808
 10
-16.8430704589
 20
9.942858765
 10
-12.4541340095
 20
8.8745476076
 10
-8.1630691282
 20
7.7629359698
 10
-3.9737192203
 20
6.6090194956
 10
0.0
 20
5.4470309428
  0
LWPOLYLINE
  5
3F6
330
395
100
AcDbEntity
  8
0
  6
Continuous
 62
     8
370
    25
100
AcDbPolyline
 90
        3
 70
   128
 43
0.0
 10
11.4445481603
 20
24.7747260735
 10
10.5576837554
 20
25.0154887374
 10
6.7587506116
 20
26.0946320794
  0
LWPOLYLINE
  5
3F7
330
395
100
AcDbEntity
  8
0
  6
Continuous
 62
     8
370
    25
100
AcDbPolyline
 90
        3
 70
   128
 43
0.0
 10
40.0692075822
 20
18.8385612721
 10
40.1102040048
 20
18.8590073243
 10
40.1454993762
 20
18.8613020358
  0
LWPOLYLINE
  5
3F8
330
395
100
AcDbEntity
  8
0
  6
Continuous
 62
     8
370
    25
100
AcDbPolyline
 90
        3
 70
   128
 43
0.0
 10
40.5369147555
 20
18.3082311863
 10
40.5616519343
 20
18.3382920092
 10
40.5692075822
 20
18.3671567513
  0
LWPOLYLINE
  5
3FA
330
395
100
AcDbEntity
  8
0
  6
Continuous
 62
     8
370
    25
100
AcDbPolyline
 90
        3
 70
   128
 43
0.0
 10
40.5369147555
 20
-3.3763767708
 10
40.5616519343
 20
-3.3463159479
 10
40.5692075822
 20
-3.3174512057
  0
LWPOLYLINE
  5
401
330
395
100
AcDbEntity
  8
0
  6
Continuous
 62
     8
370
    25
100
AcDbPolyline
 90
        3
 70
   128
 43
0.0
 10
-129.1472248311
 20
43.245746171
 10
-129.1471436581
 20
43.2406080958
 10
-129.1470298663
 20
43.2171509699
  0
LWPOLYLINE
  5
402
330
395
100
AcDbEntity
  8
0
  6
Continuous
 62
     8
370
    25
100
AcDbPolyline
 90
        3
 70
   128
 43
0.0
 10
-168.4787595369
 20
45.1455090312
 10
-168.5003939528
 20
45.1414722182
 10
-168.5281917373
 20
45.1193632939
  0
LINE
  5
406
330
395
100
AcDbEntity
  8
0
  6
Continuous
 62
     7
370
    25
100
AcDbLine
 10
40.1454993762
 20
18.8613020358
 30
0.0
 11
39.0233724787
 21
19.0383713015
 31
0.0
  0
LINE
  5
407
330
395
100
AcDbEntity
  8
0
  6
Continuous
 62
     7
370
    25
100
AcDbLine
 10
40.5692075822
 20
-3.3174512057
 30
0.0
 11
40.5692075822
 21
18.3671567513
 31
0.0
  0
LINE
  5
408
330
395
100
AcDbEntity
  8
0
  6
Continuous
 62
     7
370
    25
100
AcDbLine
 10
26.3050864982
 20
5.9995791156
 30
0.0
 11
27.5952846682
 21
7.137426949
 31
0.0
  0
LINE
  5
409
330
395
100
AcDbEntity
  8
0
  6
Continuous
 62
     7
370
    25
100
AcDbLine
 10
23.903958707
 20
11.8819834485
 30
0.0
 11
22.3364595315
 21
10.4995791156
 31
0.0
  0
LINE
  5
40A
330
395
100
AcDbEntity
  8
0
  6
Continuous
 62
     7
370
    25
100
AcDbLine
 10
39.2021909982
 20
-4.748754627
 30
0.0
 11
40.3999264961
 21
-3.6924512057
 31
0.0
  0
LINE
  5
40B
330
395
100
AcDbEntity
  8
0
  6
Continuous
 62
     7
370
    25
100
AcDbLine
 10
11.3384569506
 20
7.8851971979
 30
0.0
 11
13.9399896251
 21
10.1795333595
 31
0.0
  0
LINE
  5
40C
330
395
100
AcDbEntity
  8
0
  6
Continuous
 62
     7
370
    25
100
AcDbLine
 10
10.4363323898
 20
15.0895981182
 30
0.0
 11
7.3698299839
 21
12.3851971979
 31
0.0
  0
LINE
  5
40D
330
395
100
AcDbEntity
  8
0
  6
Continuous
 62
     7
370
    25
100
AcDbLine
 10
6.514020882
 20
26.0592405853
 30
0.0
 11
0.2045656273
 21
22.5178067662
 31
0.0
  0
LINE
  5
40E
330
395
100
AcDbEntity
  8
0
  6
Continuous
 62
     7
370
    25
100
AcDbLine
 10
-129.1472242922
 20
43.2457464113
 30
0.0
 11
-129.724040943
 21
43.2471336655
 31
0.0
  0
LINE
  5
40F
330
395
100
AcDbEntity
  8
0
  6
Continuous
 62
     7
370
    25
100
AcDbLine
 10
-138.3278385253
 20
26.7413780207
 30
0.0
 11
-135.2637155919
 21
29.4436804435
 31
0.0
  0
LINE
  5
410
330
395
100
AcDbEntity
  8
0
  6
Continuous
 62
     7
370
    25
100
AcDbLine
 10
-139.6951785361
 20
33.5354974787
 30
0.0
 11
-142.2964654919
 21
31.2413780207
 31
0.0
  0
LINE
  5
411
330
395
100
AcDbEntity
  8
0
  6
Continuous
 62
     7
370
    25
100
AcDbLine
 10
-130.9468920517
 20
16.8738684058
 30
0.0
 11
-128.7121027707
 21
20.8144840343
 31
0.0
  0
LINE
  5
412
330
395
100
AcDbEntity
  8
0
  6
Continuous
 62
     7
370
    25
100
AcDbLine
 10
-153.2944680729
 20
28.626996103
 30
0.0
 11
-151.7286559748
 21
30.0079125735
 31
0.0
  0
LINE
  5
413
330
395
100
AcDbEntity
  8
0
  6
Continuous
 62
     7
370
    25
100
AcDbLine
 10
-155.9729747596
 20
34.2647752437
 30
0.0
 11
-157.2630950395
 21
33.126996103
 31
0.0
  0
LINE
  5
414
330
395
100
AcDbEntity
  8
0
  6
Continuous
 62
     7
370
    25
100
AcDbLine
 10
-128.6470298663
 20
40.8063341478
 30
0.0
 11
-128.6470298663
 21
42.7457464491
 31
0.0
  0
LINE
  5
415
330
395
100
AcDbEntity
  8
0
  6
Continuous
 62
     7
370
    25
100
AcDbLine
 10
-168.8589106512
 20
45.0229587731
 30
0.0
 11
-170.1084228443
 21
43.9209925987
 31
0.0
  0
LINE
  5
416
330
395
100
AcDbEntity
  8
0
  6
Continuous
 62
     7
370
    25
100
AcDbLine
 10
38.8196953891
 20
17.7365950977
 30
0.0
 11
40.0692075822
 21
18.8385612721
 31
0.0
  0
LINE
  5
417
330
395
100
AcDbEntity
  8
0
  6
Continuous
 62
     7
370
    25
100
AcDbLine
 10
40.5369147555
 20
18.3082311863
 30
0.0
 11
39.4641792577
 21
17.3621674029
 31
0.0
  0
LINE
  5
418
330
395
100
AcDbEntity
  8
0
  6
Continuous
 62
     7
370
    25
100
AcDbLine
 10
38.8196953891
 20
-4.8908219009
 30
0.0
 11
38.8196953891
 21
17.7365950977
 31
0.0
  0
LINE
  5
419
330
395
100
AcDbEntity
  8
0
  6
Continuous
 62
     7
370
    25
100
AcDbLine
 10
39.4641792577
 20
17.3621674029
 30
0.0
 11
39.4641792577
 21
-4.3224405541
 31
0.0
  0
LINE
  5
41A
330
395
100
AcDbEntity
  8
0
  6
Continuous
 62
     7
370
    25
100
AcDbLine
 10
6.7587506116
 20
26.0946320794
 30
0.0
 11
0.4749223104
 21
22.5675824117
 31
0.0
  0
LINE
  5
41B
330
395
100
AcDbEntity
  8
0
  6
Continuous
 62
     7
370
    25
100
AcDbLine
 10
0.4749223104
 20
22.5675824117
 30
0.0
 11
38.8196953891
 21
17.7365950977
 31
0.0
  0
LINE
  5
41C
330
395
100
AcDbEntity
  8
0
  6
Continuous
 62
     7
370
    25
100
AcDbLine
 10
37.416573869
 20
16.0277537097
 30
0.0
 11
37.416573869
 21
-2.8284271225
 31
0.0
  0
LINE
  5
41D
330
395
100
AcDbEntity
  8
0
  6
Continuous
 62
     7
370
    25
100
AcDbLine
 10
1.8996892416
 20
20.5024605678
 30
0.0
 11
37.416573869
 21
16.0277537097
 31
0.0
  0
LINE
  5
41E
330
395
100
AcDbEntity
  8
0
  6
Continuous
 62
     7
370
    25
100
AcDbLine
 10
1.8996892416
 20
20.5024605678
 30
0.0
 11
1.8996892416
 21
1.6462797356
 31
0.0
  0
LINE
  5
41F
330
395
100
AcDbEntity
  8
0
  6
Continuous
 62
     7
370
    25
100
AcDbLine
 10
1.8996892416
 20
1.6462797356
 30
0.0
 11
37.416573869
 21
-2.8284271225
 31
0.0
  0
LINE
  5
420
330
395
100
AcDbEntity
  8
0
  6
Continuous
 62
     7
370
    25
100
AcDbLine
 10
0.0
 20
22.1560124778
 30
0.0
 11
0.0
 21
0.4714045208
 31
0.0
  0
LINE
  5
421
330
395
100
AcDbEntity
  8
0
  6
Continuous
 62
     7
370
    25
100
AcDbLine
 10
0.4749223104
 20
-0.0598345869
 30
0.0
 11
38.8196953891
 21
-4.8908219009
 31
0.0
  0
LINE
  5
422
330
395
100
AcDbEntity
  8
0
  6
Continuous
 62
     7
370
    25
100
AcDbLine
 10
40.5369147555
 20
-3.3763767708
 30
0.0
 11
40.5369147555
 21
18.3082311863
 31
0.0
  0
LINE
  5
423
330
395
100
AcDbEntity
  8
0
  6
Continuous
 62
     7
370
    25
100
AcDbLine
 10
39.4641792577
 20
-4.3224405541
 30
0.0
 11
40.5369147555
 21
-3.3763767708
 31
0.0
  0
LINE
  5
424
330
395
100
AcDbEntity
  8
0
  6
Continuous
 62
     7
370
    25
100
AcDbLine
 10
7.1292095805
 20
19.8436029352
 30
0.0
 11
7.1292095805
 21
12.1391982563
 31
0.0
  0
LINE
  5
425
330
395
100
AcDbEntity
  8
0
  6
Continuous
 62
     7
370
    25
100
AcDbLine
 10
7.1292095805
 20
8.6918267819
 30
0.0
 11
7.1292095805
 21
4.5815569407
 31
0.0
  0
LINE
  5
426
330
395
100
AcDbEntity
  8
0
  6
Continuous
 62
     7
370
    25
100
AcDbLine
 10
7.1292095805
 20
4.5815569407
 30
0.0
 11
1.8996892416
 21
1.6462797356
 31
0.0
  0
LINE
  5
427
330
395
100
AcDbEntity
  8
0
  6
Continuous
 62
     7
370
    25
100
AcDbLine
 10
-130.8473249488
 20
38.8503396555
 30
0.0
 11
-130.8473249488
 21
17.1657316985
 31
0.0
  0
LINE
  5
428
330
395
100
AcDbEntity
  8
0
  6
Continuous
 62
     7
370
    25
100
AcDbLine
 10
-131.5154002455
 20
16.5693829738
 30
0.0
 11
-131.5154002455
 21
39.1967999725
 31
0.0
  0
LINE
  5
429
330
395
100
AcDbEntity
  8
0
  6
Continuous
 62
     7
370
    25
100
AcDbLine
 10
-128.6557312648
 20
42.7147882619
 30
0.0
 11
-130.8473249488
 21
38.8503396555
 31
0.0
  0
LINE
  5
42A
330
395
100
AcDbEntity
  8
0
  6
Continuous
 62
     7
370
    25
100
AcDbLine
 10
-131.431498112
 20
39.1889361631
 30
0.0
 11
-129.1470298663
 21
43.2171509699
 31
0.0
  0
LINE
  5
42B
330
395
100
AcDbEntity
  8
0
  6
Continuous
 62
     7
370
    25
100
AcDbLine
 10
-168.5281917373
 20
45.1193632939
 30
0.0
 11
-169.7777039304
 21
44.0173971195
 31
0.0
  0
LINE
  5
42C
330
395
100
AcDbEntity
  8
0
  6
Continuous
 62
     7
370
    25
100
AcDbLine
 10
-131.5154002455
 20
39.1967999725
 30
0.0
 11
-169.7777039304
 21
44.0173971195
 31
0.0
  0
LINE
  5
42D
330
395
100
AcDbEntity
  8
0
  6
Continuous
 62
     7
370
    25
100
AcDbLine
 10
-132.857697783
 20
37.480295483
 30
0.0
 11
-132.857697783
 21
18.6241146508
 31
0.0
  0
LINE
  5
42E
330
395
100
AcDbEntity
  8
0
  6
Continuous
 62
     7
370
    25
100
AcDbLine
 10
-132.857697783
 20
37.480295483
 30
0.0
 11
-168.3745824103
 21
41.9550023411
 31
0.0
  0
LINE
  5
42F
330
395
100
AcDbEntity
  8
0
  6
Continuous
 62
     7
370
    25
100
AcDbLine
 10
-168.3745824103
 20
41.9550023411
 30
0.0
 11
-168.3745824103
 21
23.0988215089
 31
0.0
  0
LINE
  5
430
330
395
100
AcDbEntity
  8
0
  6
Continuous
 62
     7
370
    25
100
AcDbLine
 10
-132.857697783
 20
18.6241146508
 30
0.0
 11
-168.3745824103
 21
23.0988215089
 31
0.0
  0
LINE
  5
431
330
395
100
AcDbEntity
  8
0
  6
Continuous
 62
     7
370
    25
100
AcDbLine
 10
-170.2454111038
 20
43.6049181638
 30
0.0
 11
-170.2454111038
 21
21.9203102068
 31
0.0
  0
LINE
  5
432
330
395
100
AcDbEntity
  8
0
  6
Continuous
 62
     7
370
    25
100
AcDbLine
 10
-131.5154002455
 20
16.5693829738
 30
0.0
 11
-169.7777039304
 21
21.3899801209
 31
0.0
  0
LINE
  5
433
330
395
100
AcDbEntity
  8
0
  6
Continuous
 62
     7
370
    25
100
AcDbLine
 10
-167.6158543466
 20
41.8594115902
 30
0.0
 11
-167.6158543466
 21
23.7679567653
 31
0.0
  0
LINE
  5
434
330
395
100
AcDbEntity
  8
0
  6
Continuous
 62
     7
370
    25
100
AcDbLine
 10
-168.3745824103
 20
23.0988215089
 30
0.0
 11
-167.6158543466
 21
23.7679567653
 31
0.0
  0
LINE
  5
435
330
395
100
AcDbEntity
  8
0
  6
Continuous
 62
     7
370
    25
100
AcDbLine
 10
-128.9381341439
 20
40.8026122257
 30
0.0
 11
-129.4720155541
 21
39.8612163425
 31
0.0
  0
LINE
  5
436
330
395
100
AcDbEntity
  8
0
  6
Continuous
 62
     7
370
    25
100
AcDbLine
 10
-129.4720155541
 20
39.8612163425
 30
0.0
 11
-129.4720155541
 21
21.0050355103
 31
0.0
  0
LINE
  5
437
330
395
100
AcDbEntity
  8
0
  6
Continuous
 62
     8
370
    25
100
AcDbLine
 10
40.0692075822
 20
18.8385612721
 30
0.0
 11
38.9393768909
 21
19.0150752843
 31
0.0
  0
LINE
  5
438
330
395
100
AcDbEntity
  8
0
  6
Continuous
 62
     8
370
    25
100
AcDbLine
 10
-129.1470298663
 20
43.2171509699
 30
0.0
 11
-129.7293753337
 21
43.2173352013
 31
0.0
  0
LINE
  5
439
330
395
100
AcDbEntity
  8
0
  6
Continuous
 62
     8
370
    25
100
AcDbLine
 10
-164.4059963684
 20
44.7340087164
 30
0.0
 11
-168.5281917373
 21
45.1193632939
 31
0.0
  0
LINE
  5
43A
330
395
100
AcDbEntity
  8
0
  6
Continuous
 62
     8
370
    25
100
AcDbLine
 10
-128.6557312648
 20
40.8062251218
 30
0.0
 11
-128.6557312648
 21
42.7147882619
 31
0.0
  0
LINE
  5
43B
330
395
100
AcDbEntity
  8
0
  6
Continuous
 62
     8
370
    25
100
AcDbLine
 10
-130.8473249488
 20
17.1657316985
 30
0.0
 11
-128.6638083672
 21
21.015937908
 31
0.0
  0
LINE
  5
43C
330
395
100
AcDbEntity
  8
0
  6
Continuous
 62
     8
370
    25
100
AcDbLine
 10
-128.6557312648
 20
42.7147882619
 30
0.0
 11
-128.6470298663
 21
42.7457464491
 31
0.0
  0
ARC
  5
43D
330
395
100
AcDbEntity
  8
0
  6
Continuous
 62
     7
370
    25
100
AcDbCircle
 10
40.0692075822
 20
18.3671567513
 30
0.0
 40
0.500000000000011
100
AcDbArc
 50
0.0
 51
81.2233209238
  0
ARC
  5
43E
330
395
100
AcDbEntity
  8
0
  6
Continuous
 62
     7
370
    25
100
AcDbCircle
 10
40.0692075822
 20
-3.3174512057
 30
0.0
 40
0.500000000000024
100
AcDbArc
 50
311.40962211
 51
360.0
  0
ARC
  5
43F
330
395
100
AcDbEntity
  8
0
  6
Continuous
 62
     7
370
    25
100
AcDbCircle
 10
6.7587506116
 20
25.6232275586
 30
0.0
 40
0.4999999999999519
100
AcDbArc
 50
73.5816329357
 51
119.3050595866
  0
ARC
  5
440
330
395
100
AcDbEntity
  8
0
  6
Continuous
 62
     7
370
    25
100
AcDbCircle
 10
-129.1470298663
 20
42.7457464491
 30
0.0
 40
0.5000000000000853
100
AcDbArc
 50
0.0
 51
90.022279573
  0
ARC
  5
441
330
395
100
AcDbEntity
  8
0
  6
Continuous
 62
     7
370
    25
100
AcDbCircle
 10
-168.5281917373
 20
44.6479587731
 30
0.0
 40
0.5000000000000978
100
AcDbArc
 50
84.3404490819
 51
131.40962211
  0
ARC
  5
442
330
395
100
AcDbEntity
  8
0
  6
Continuous
 62
     7
370
    25
100
AcDbCircle
 10
-129.1470298663
 20
21.0611384921
 30
0.0
 40
0.5000000000003746
100
AcDbArc
 50
330.44169999
 51
354.8349198752
  0
ARC
  5
443
330
395
100
AcDbEntity
  8
0
  6
Continuous
 62
     7
370
    25
100
AcDbCircle
 10
39.9909519372
 20
18.2981417596
 30
0.0
 40
0.5460560369788494
100
AcDbArc
 50
1.0587090425
 51
81.7605351794
  0
ARC
  5
444
330
395
100
AcDbEntity
  8
0
  6
Continuous
 62
     7
370
    25
100
AcDbCircle
 10
38.7205128425
 20
16.8240041387
 30
0.0
 40
0.9179648337867619
100
AcDbArc
 50
35.891837529
 51
83.797304331
  0
ARC
  5
445
330
395
100
AcDbEntity
  8
0
  6
Continuous
 62
     7
370
    25
100
AcDbCircle
 10
38.778823628
 20
-4.194898998
 30
0.0
 40
0.697122075109952
100
AcDbArc
 50
273.3611374152
 51
349.4581068065
  0
ARC
  5
446
330
395
100
AcDbEntity
  8
0
  6
Continuous
 62
     7
370
    25
100
AcDbCircle
 10
79.1627713123
 20
279.5351983896
 30
0.0
 40
263.6070105319438
100
AcDbArc
 50
255.1143454828
 51
261.223037016
  0
ARC
  5
447
330
395
100
AcDbEntity
  8
0
  6
Continuous
 62
     7
370
    25
100
AcDbCircle
 10
0.5501367353
 20
0.4853137267
 30
0.0
 40
0.5503125416772817
100
AcDbArc
 50
181.448310932
 51
262.1444636456
  0
ARC
  5
448
330
395
100
AcDbEntity
  8
0
  6
Continuous
 62
     7
370
    25
100
AcDbCircle
 10
0.4100923138
 20
22.1625934166
 30
0.0
 40
0.4101451140896715
100
AcDbArc
 50
80.9053424094
 51
180.9193726492
  0
ARC
  5
449
330
395
100
AcDbEntity
  8
0
  6
Continuous
 62
     7
370
    25
100
AcDbCircle
 10
77.8858272737
 20
255.7207316643
 30
0.0
 40
260.9164311196118
100
AcDbArc
 50
254.2652076467
 51
261.0771561976
  0
ARC
  5
44A
330
395
100
AcDbEntity
  8
0
  6
Continuous
 62
     7
370
    25
100
AcDbCircle
 10
-131.4233706366
 20
38.529729462
 30
0.0
 40
0.6592568017348662
100
AcDbArc
 50
29.0990338073
 51
90.7063739512
  0
ARC
  5
44B
330
395
100
AcDbEntity
  8
0
  6
Continuous
 62
     7
370
    25
100
AcDbCircle
 10
-131.4896094925
 20
17.2022086944
 30
0.0
 40
0.6433195211627605
100
AcDbArc
 50
275.1826213772
 51
356.7495165954
  0
ARC
  5
44C
330
395
100
AcDbEntity
  8
0
  6
Continuous
 62
     7
370
    25
100
AcDbCircle
 10
-131.3472416181
 20
17.9120101124
 30
0.0
 40
1.353116756624206
100
AcDbArc
 50
262.8611083017
 51
266.4299705736
  0
ARC
  5
44D
330
395
100
AcDbEntity
  8
0
  6
Continuous
 62
     7
370
    25
100
AcDbCircle
 10
-131.3472416181
 20
40.539427111
 30
0.0
 40
1.353116756609656
100
AcDbArc
 50
262.8611083017
 51
266.4299705736
  0
ARC
  5
44E
330
395
100
AcDbEntity
  8
0
  6
Continuous
 62
     7
370
    25
100
AcDbCircle
 10
-129.1745440771
 20
42.6988222958
 30
0.0
 40
0.5190584227725115
100
AcDbArc
 50
1.7626662993
 51
86.9614454102
  0
ARC
  5
44F
330
395
100
AcDbEntity
  8
0
  6
Continuous
 62
     7
370
    25
100
AcDbCircle
 10
-129.5541774608
 20
444.397573835
 30
0.0
 40
401.1802768886616
100
AcDbArc
 50
265.0162495012
 51
269.974978583
  0
ARC
  5
450
330
395
100
AcDbEntity
  8
0
  6
Continuous
 62
     7
370
    25
100
AcDbCircle
 10
-169.6994482855
 20
21.9303996335
 30
0.0
 40
0.5460560369788654
100
AcDbArc
 50
181.0587090425
 51
261.7605351794
  0
ARC
  5
451
330
395
100
AcDbEntity
  8
0
  6
Continuous
 62
     7
370
    25
100
AcDbCircle
 10
-169.8385694321
 20
43.6150075905
 30
0.0
 40
0.4069667583223445
100
AcDbArc
 50
81.3986348259
 51
181.4206093965
  0
ARC
  5
452
330
395
100
AcDbEntity
  8
0
  6
Continuous
 62
     7
370
    25
100
AcDbCircle
 10
-129.6579869228
 20
425.2794469635
 30
0.0
 40
403.3017188910839
100
AcDbArc
 50
264.5994544715
 51
269.5454225888
  0
ARC
  5
453
330
395
100
AcDbEntity
  8
0
  6
Continuous
 62
     8
370
    25
100
AcDbCircle
 10
6.8412760034
 20
25.894449945
 30
0.0
 40
0.2165255810647874
100
AcDbArc
 50
74.2369689046
 51
112.4039804345
  0
ARC
  5
454
330
395
100
AcDbEntity
  8
0
  6
Continuous
 62
     8
370
    25
100
AcDbCircle
 10
40.1201880096
 20
-3.3834882103
 30
0.0
 40
0.416787419866304
100
AcDbArc
 50
312.158037431
 51
0.9776572489
  0
ARC
  5
455
330
395
100
AcDbEntity
  8
0
  6
Continuous
 62
     8
370
    25
100
AcDbCircle
 10
6.6835030056
 20
25.7511237521
 30
0.0
 40
0.3516534844304531
100
AcDbArc
 50
77.644174634
 51
118.8133442759
  0
ARC
  5
456
330
395
100
AcDbEntity
  8
0
  6
Continuous
 62
     8
370
    25
100
AcDbCircle
 10
-129.0906829676
 20
21.0285490815
 30
0.0
 40
0.4349101170420342
100
AcDbArc
 50
330.5143697518
 51
358.3515391028
  0
ARC
  5
457
330
395
100
AcDbEntity
  8
0
  6
Continuous
 62
     8
370
    25
100
AcDbCircle
 10
-168.5873382432
 20
44.7067939735
 30
0.0
 40
0.4167874198621105
100
AcDbArc
 50
81.8415869733
 51
130.6612067915
  0
VIEWPORT
  5
4F8
330
395
100
AcDbEntity
  8
0
100
AcDbViewport
 10
0.0
 20
0.0
 30
0.0
 40
205.6
 41
156.0
 68
     1
 69
     1
 12
-70.0
 22
12.75
 13
0.0
 23
0.0
 14
10.0
 24
10.0
 15
10.0
 25
10.0
 16
0.0
 26
0.0
 36
1.0
 17
0.0
 27
0.0
 37
0.0
 42
50.0
 43
0.0
 44
0.0
 45
173.360311284
 50
0.0
 51
0.0
 72
   100
 90
   557152
  1

281
     0
 71
     1
 74
     0
110
0.0
120
0.0
130
0.0
111
1.0
121
0.0
131
0.0
112
0.0
122
1.0
132
0.0
 79
     0
146
0.0
  0
ENDBLK
  5
398
330
395
100
AcDbEntity
  8
0
100
AcDbBlockEnd
  0
BLOCK
  5
45A
330
458
100
AcDbEntity
  8
0
100
AcDbBlockBegin
  2
*Paper_Space7
 70
     0
 10
0.0
 20
0.0
 30
0.0
  3
*Paper_Space7
  1

  0
SPLINE
  5
45D
330
458
100
AcDbEntity
  8
0
  6
Continuous
 62
     7
370
    25
100
AcDbSpline
210
0.0
220
0.0
230
1.0
 70
     8
 71
     3
 72
    17
 73
    13
 74
     0
 42
0.000000001
 43
0.00000001
 40
0.0
 40
0.0
 40
0.0
 40
0.0
 40
0.0577808579589711
 40
0.1675918951498287
 40
0.2774029562532782
 40
0.387210216503557
 40
0.4970133286769856
 40
0.6068119422782584
 40
0.7166057055053541
 40
0.826394268491128
 40
0.9361772877752353
 40
1.0
 40
1.0
 40
1.0
 40
1.0
 10
-3.367717821351701
 20
-26.80003247762771
 30
0.0
 10
-2.632553433903839
 20
-26.85632795511866
 30
0.0
 10
-0.5002280013784512
 20
-27.01961154235394
 30
0.0
 10
2.99888104131997
 20
-27.34185614954539
 30
0.0
 10
7.11151028393027
 20
-27.78867107744184
 30
0.0
 10
11.17476095787724
 20
-28.30353364951364
 30
0.0
 10
15.18509652068299
 20
-28.88470399234756
 30
0.0
 10
19.13815234508669
 20
-29.53196951467108
 30
0.0
 10
23.03030818171846
 20
-30.24426385445938
 30
0.0
 10
26.85618733188766
 20
-31.0219982482215
 30
0.0
 10
30.09230852727614
 20
-31.7431724063579
 30
0.0
 10
32.03806570580857
 20
-32.21636904987223
 30
0.0
 10
32.75338483372804
 20
-32.39033043318749
 30
0.0
  0
SPLINE
  5
467
330
458
100
AcDbEntity
  8
0
  6
Continuous
 62
     7
370
    25
100
AcDbSpline
210
0.0
220
0.0
230
1.0
 70
     8
 71
     3
 72
    17
 73
    13
 74
     0
 42
0.000000001
 43
0.00000001
 40
0.0
 40
0.0
 40
0.0
 40
0.0
 40
0.0577883367210872
 40
0.1675796640776366
 40
0.2773674712259289
 40
0.3871486903807542
 40
0.4969238147051884
 40
0.6066936103725629
 40
0.7164591831473696
 40
0.8262220561202765
 40
0.9359841259367455
 40
1.0
 40
1.0
 40
1.0
 40
1.0
 10
-145.7696705192213
 20
21.07227054182865
 30
0.0
 10
-145.1934373962882
 20
20.86352564120812
 30
0.0
 10
-143.5224262779444
 20
20.25818895375952
 30
0.0
 10
-140.8272814558164
 20
19.21281467266964
 30
0.0
 10
-137.7185162988737
 20
17.91900608590254
 30
0.0
 10
-134.7104524685725
 20
16.57043356927737
 30
0.0
 10
-131.8045835521035
 20
15.16954071847659
 30
0.0
 10
-129.0044197523156
 20
13.71748065019318
 30
0.0
 10
-126.3120952762133
 20
12.21606476820504
 30
0.0
 10
-123.7325123715408
 20
10.66606203572959
 30
0.0
 10
-121.603651201381
 20
9.293506368521346
 30
0.0
 10
-120.3573469824864
 20
8.430013252702594
 30
0.0
 10
-119.8982366250956
 20
8.111921869396792
 30
0.0
  0
SPLINE
  5
46C
330
458
100
AcDbEntity
  8
0
  6
Continuous
 62
     7
370
    25
100
AcDbSpline
210
0.0
220
0.0
230
1.0
 70
     8
 71
     3
 72
    10
 73
     6
 74
     0
 42
0.000000001
 43
0.00000001
 40
0.0
 40
0.0
 40
0.0
 40
0.0
 40
0.2072928524571573
 40
0.8082782078055042
 40
1.0
 40
1.0
 40
1.0
 40
1.0
 10
-118.3949587787435
 20
10.25676156483639
 30
0.0
 10
-118.0992923237167
 20
10.02944430754964
 30
0.0
 10
-116.9464269472967
 20
9.143086755202441
 30
0.0
 10
-115.4751582519774
 20
8.062199333318878
 30
0.0
 10
-114.2447686738929
 20
7.230268787510913
 30
0.0
 10
-113.9471903112668
 20
7.029060540911839
 30
0.0
  0
LWPOLYLINE
  5
47C
330
458
100
AcDbEntity
  8
0
  6
Continuous
 62
     7
370
    25
100
AcDbPolyline
 90
       10
 70
   128
 43
0.0
 10
33.2138588992
 20
-9.9465911027
 10
33.2793980733
 20
-9.9772869087
 10
33.3350476894
 20
-10.0268221943
 10
33.3791168619
 20
-10.0936918549
 10
33.4102665713
 20
-10.1758640896
 10
33.4275503495
 20
-10.2708421368
 10
33.4304430377
 20
-10.3757401365
 10
33.4188567429
 20
-10.4873708161
 10
33.3931435089
 20
-10.6023423338
 10
33.3540846192
 20
-10.7171613383
  0
LWPOLYLINE
  5
47F
330
458
100
AcDbEntity
  8
0
  6
Continuous
 62
     7
370
    25
100
AcDbPolyline
 90
        6
 70
   128
 43
0.0
 10
35.1943093259
 20
-30.8371171276
 10
35.1999717897
 20
-30.8264139364
 10
35.1921601639
 20
-30.8071691738
 10
35.1687306428
 20
-30.7814486095
 10
35.1303951205
 20
-30.7500337498
 10
35.0783184023
 20
-30.7138791195
  0
LWPOLYLINE
  5
482
330
458
100
AcDbEntity
  8
0
  6
Continuous
 62
     7
370
    25
100
AcDbPolyline
 90
       10
 70
   128
 43
0.0
 10
-112.4586836246
 20
33.6734915004
 10
-112.4041556183
 20
33.6369640299
 10
-112.3611566734
 20
33.582506282
 10
-112.3309932911
 20
33.5117729278
 10
-112.3145819704
 20
33.4269131645
 10
-112.312421361
 20
33.3305054131
 10
-112.324577112
 20
33.2254789743
 10
-112.350679877
 20
33.1150250233
 10
-112.3899365368
 20
33.0024996476
 10
-112.4411542975
 20
32.8913218736
  0
SPLINE
  5
493
330
458
100
AcDbEntity
  8
0
  6
Continuous
 62
     7
370
    25
100
AcDbSpline
210
0.0
220
0.0
230
1.0
 70
     8
 71
     3
 72
    10
 73
     6
 74
     0
 42
0.000000001
 43
0.00000001
 40
0.0
 40
0.0
 40
0.0
 40
0.0
 40
0.5
 40
0.5
 40
1.0
 40
1.0
 40
1.0
 40
1.0
 10
-119.9120622845091
 20
27.38911319932422
 30
0.0
 10
-119.9160745557285
 20
27.43564532044316
 30
0.0
 10
-119.9033485760653
 20
27.48978176975698
 30
0.0
 10
-119.8536984045882
 20
27.582671101506
 30
0.0
 10
-119.8170851312026
 20
27.6212395719023
 30
0.0
 10
-119.7783210702006
 20
27.64176954676481
 30
0.0
  0
LWPOLYLINE
  5
494
330
458
100
AcDbEntity
  8
0
  6
Continuous
 62
     7
370
    25
100
AcDbPolyline
 90
       28
 70
   128
 43
0.0
 10
-119.1992975146
 20
27.1990600214
 10
-116.9460872277
 20
25.5380684672
 10
-113.9768281091
 20
23.4856140188
 10
-110.8731567338
 20
21.4862124108
 10
-107.6378044073
 20
19.5416231648
 10
-104.2736183172
 20
17.653557566
 10
-100.7835590283
 20
15.8236771575
 10
-97.1706978767
 20
14.0535922781
 10
-93.438214267
 20
12.344860645
 10
-89.5893928745
 20
10.6989859832
 10
-85.6276207546
 20
9.1174167019
 10
-81.5563843619
 20
7.6015446201
 10
-77.3792664825
 20
6.1527037417
 10
-73.0999430804
 20
4.7721690815
 10
-68.722180063
 20
3.4611555431
 10
-64.2498299672
 20
2.2208168501
 10
-59.6868285684
 20
1.0522445302
 10
-55.0371914177
 20
-0.0435330448
 10
-50.3050103075
 20
-1.0655515643
 10
-45.4944496709
 20
-2.0129116274
 10
-40.609742917
 20
-2.8847795345
 10
-35.655188705
 20
-3.6803880209
 10
-30.6351471619
 20
-4.3990369319
 10
-25.5540360448
 20
-5.0400938393
 10
-20.4163268538
 20
-5.6029945976
 10
-15.2265408963
 20
-6.0872438406
 10
-9.9892453089
 20
-6.4924154172
 10
-5.5165269033
 20
-6.7736423563
  0
LWPOLYLINE
  5
496
330
458
100
AcDbEntity
  8
0
  6
Continuous
 62
     7
370
    25
100
AcDbPolyline
 90
       28
 70
   128
 43
0.0
 10
-117.6951285922
 20
28.7450566664
 10
-114.8970397477
 20
26.6492142605
 10
-111.9613237521
 20
24.6045347414
 10
-108.8906100568
 20
22.6128494802
 10
-105.6876490273
 20
20.675942382
 10
-102.3553094799
 20
18.7955482889
 10
-98.8965761122
 20
16.9733514251
 10
-95.3145468299
 20
15.2109838893
 10
-91.6124299716
 20
13.5100241924
 10
-87.7935414359
 20
11.8719958437
 10
-83.8613017107
 20
10.2983659863
 10
-79.8192328101
 20
8.7905440834
 10
-75.6709551194
 20
7.3498806551
 10
-71.4201841527
 20
5.9776660698
 10
-67.070727225
 20
4.6751293874
 10
-62.6264800418
 20
3.4434372593
 10
-58.09142321
 20
2.2836928829
 10
-53.4696186727
 20
1.1969350137
 10
-48.7652060707
 20
0.1841370352
 10
-43.982399035
 20
-0.7537939136
 10
-39.1254814126
 20
-1.6160177502
 10
-34.1988034297
 20
-2.401762201
 10
-29.2067777949
 20
-3.1103234933
 10
-24.1538757475
 20
-3.7410669857
 10
-19.0446230521
 20
-4.293427736
 10
-13.8835959454
 20
-4.7669110078
 10
-8.6754170372
 20
-5.1610927134
 10
-4.8785108838
 20
-5.3967523963
  0
LWPOLYLINE
  5
498
330
458
100
AcDbEntity
  8
0
  6
Continuous
 62
     7
370
    25
100
AcDbPolyline
 90
       27
 70
   128
 43
0.0
 10
-4.0171931789
 20
-24.1620926008
 10
-8.4899115844
 20
-23.8808656617
 10
-13.7272071718
 20
-23.4756940851
 10
-18.9169931293
 20
-22.9914448421
 10
-24.0547023204
 20
-22.4285440838
 10
-29.1358134374
 20
-21.7874871764
 10
-34.1558549805
 20
-21.0688382654
 10
-39.1104091925
 20
-20.273229779
 10
-43.9951159464
 20
-19.4013618719
 10
-48.805676583
 20
-18.4540018088
 10
-53.5378576932
 20
-17.4319832893
 10
-58.187494844
 20
-16.3362057143
 10
-62.7504962427
 20
-15.1676333944
 10
-67.2228463385
 20
-13.9272947014
 10
-71.6006093559
 20
-12.616281163
 10
-75.879932758
 20
-11.2357465028
 10
-80.0570506375
 20
-9.7869056243
 10
-84.1282870301
 20
-8.2710335425
 10
-88.09005915
 20
-6.6894642612
 10
-91.9388805425
 20
-5.0435895994
 10
-95.6713641522
 20
-3.3348579664
 10
-99.2842253039
 20
-1.564773087
 10
-102.7742845927
 20
0.2651073215
 10
-106.1384706828
 20
2.1531729203
 10
-109.3738230094
 20
4.0977621663
 10
-112.4774943847
 20
6.0971637743
 10
-113.8297949406
 20
7.0138563123
  0
SPLINE
  5
499
330
458
100
AcDbEntity
  8
0
  6
Continuous
 62
     7
370
    25
100
AcDbSpline
210
0.0
220
0.0
230
1.0
 70
     8
 71
     3
 72
    10
 73
     6
 74
     0
 42
0.000000001
 43
0.00000001
 40
0.0
 40
0.0
 40
0.0
 40
0.0
 40
0.2507601169562074
 40
0.7255187764936677
 40
1.0
 40
1.0
 40
1.0
 40
1.0
 10
-118.3951795282657
 20
10.25647000741995
 30
0.0
 10
-118.4018720705809
 20
10.26073933467209
 30
0.0
 10
-118.4212354572749
 20
10.27309168608275
 30
0.0
 10
-118.4367592206779
 20
10.30751833660072
 30
0.0
 10
-118.4411183015711
 20
10.33746215431711
 30
0.0
 10
-118.4427152345214
 20
10.34843195972825
 30
0.0
  0
LWPOLYLINE
  5
49A
330
458
100
AcDbEntity
  8
0
  6
Continuous
 62
     8
370
    25
100
AcDbPolyline
 90
        7
 70
   128
 43
0.0
 10
-3.4670504497
 20
-26.545871218
 10
-3.4571212398
 20
-26.6259815719
 10
-3.442340459
 20
-26.6936181196
 10
-3.4232761245
 20
-26.7461816267
 10
-3.4006608679
 20
-26.7816521068
 10
-3.3753637808
 20
-26.7986664496
 10
-3.3677759444
 20
-26.8000281376
  0
LWPOLYLINE
  5
49D
330
458
100
AcDbEntity
  8
0
  6
Continuous
 62
     8
370
    25
100
AcDbPolyline
 90
        7
 70
   128
 43
0.0
 10
-5.1912842329
 20
-6.5491534369
 10
-5.2926070531
 20
-6.5355403171
 10
-5.3824968281
 20
-6.5108134062
 10
-5.4566263096
 20
-6.4761630452
 10
-5.5114269417
 20
-6.4332572851
 10
-5.5442606496
 20
-6.3841615873
 10
-5.5532603944
 20
-6.347627473
  0
LWPOLYLINE
  5
49F
330
458
100
AcDbEntity
  8
0
  6
Continuous
 62
     8
370
    25
100
AcDbPolyline
 90
        7
 70
   128
 43
0.0
 10
-3.4670504497
 20
-26.545871218
 10
-3.5683732699
 20
-26.5322580983
 10
-3.658263045
 20
-26.5075311874
 10
-3.7323925264
 20
-26.4728808264
 10
-3.7871931585
 20
-26.4299750662
 10
-3.8200268664
 20
-26.3808793685
 10
-3.8290266113
 20
-26.3443452542
  0
LWPOLYLINE
  5
4A8
330
458
100
AcDbEntity
  8
0
  6
Continuous
 62
     8
370
    25
100
AcDbPolyline
 90
       28
 70
   128
 43
0.0
 10
-5.4927900503
 20
-7.0489293598
 10
-10.0680591885
 20
-6.7613590091
 10
-15.3074373398
 20
-6.3554083568
 10
-20.499280652
 20
-5.8703954943
 10
-25.6390258591
 20
-5.306746714
 10
-30.7221554856
 20
-4.6649574235
 10
-35.744201817
 20
-3.9455917107
 10
-40.7007508269
 20
-3.1492818475
 10
-45.5874460564
 20
-2.2767277344
 10
-50.3999924431
 20
-1.3286962854
 10
-55.1341600963
 20
-0.3060207535
 10
-59.7857880148
 20
0.7904000012
 10
-64.3507877438
 20
1.9596023017
 10
-68.8251469689
 20
3.2005585012
 10
-73.204933042
 20
4.5121778863
 10
-77.4862964384
 20
5.8933076356
 10
-81.6654741401
 20
7.3427338328
 10
-85.738792943
 20
8.8591825341
 10
-89.7026726854
 20
10.4413208873
 10
-93.5536293953
 20
12.0877583038
 10
-97.2882783517
 20
13.7970476806
 10
-100.9033370603
 20
15.5676866723
 10
-104.3956281378
 20
17.3981190114
 10
-107.7620821055
 20
19.2867358762
 10
-110.9997400865
 20
21.231877305
 10
-114.1057564064
 20
23.231833655
 10
-117.0774010948
 20
25.2848471047
 10
-119.9120622845
 20
27.3891131993
  0
LWPOLYLINE
  5
4AA
330
458
100
AcDbEntity
  8
0
  6
Continuous
 62
     8
370
    25
100
AcDbPolyline
 90
       28
 70
   128
 43
0.0
 10
-118.4427152345
 20
10.3484319597
 10
-115.6080540448
 20
8.2441658651
 10
-112.6364093564
 20
6.1911524154
 10
-109.5303930365
 20
4.1911960655
 10
-106.2927350555
 20
2.2460546366
 10
-102.9262810878
 20
0.3574377718
 10
-99.4339900103
 20
-1.4729945673
 10
-95.8189313018
 20
-3.243633559
 10
-92.0842823453
 20
-4.9529229358
 10
-88.2333256354
 20
-6.5993603523
 10
-84.269445893
 20
-8.1814987055
 10
-80.1961270901
 20
-9.6979474068
 10
-76.0169493884
 20
-11.147373604
 10
-71.735585992
 20
-12.5285033533
 10
-67.3557999189
 20
-13.8401227384
 10
-62.8814406938
 20
-15.0810789379
 10
-58.3164409648
 20
-16.2502812384
 10
-53.6648130463
 20
-17.3467019931
 10
-48.9306453931
 20
-18.369377525
 10
-44.1180990064
 20
-19.317408974
 10
-39.2314037769
 20
-20.1899630871
 10
-34.274854767
 20
-20.9862729503
 10
-29.2528084356
 20
-21.7056386631
 10
-24.1696788091
 20
-22.3474279536
 10
-19.029933602
 20
-22.9110767339
 10
-13.8380902898
 20
-23.3960895964
 10
-8.5987121385
 20
-23.8020402487
 10
-4.0234430003
 20
-24.0896105994
  0
LINE
  5
4AB
330
458
100
AcDbEntity
  8
0
  6
Continuous
 62
     7
370
    25
100
AcDbLine
 10
35.1999087214
 20
-30.8248532921
 30
0.0
 11
33.4284635046
 21
-10.2806031955
 31
0.0
  0
LINE
  5
4AC
330
458
100
AcDbEntity
  8
0
  6
Continuous
 62
     7
370
    25
100
AcDbLine
 10
33.1671165913
 20
-32.3094743473
 30
0.0
 11
35.1943093259
 21
-30.8371171276
 31
0.0
  0
LINE
  5
4AD
330
458
100
AcDbEntity
  8
0
  6
Continuous
 62
     7
370
    25
100
AcDbLine
 10
-5.5532603944
 20
-6.347627473
 30
0.0
 11
-3.8290266113
 21
-26.3443452542
 31
0.0
  0
LINE
  5
4AE
330
458
100
AcDbEntity
  8
0
  6
Continuous
 62
     7
370
    25
100
AcDbLine
 10
0.1122827883
 20
-0.1796565518
 30
0.0
 11
-5.4164114778
 21
-5.9590435144
 31
0.0
  0
LINE
  5
4AF
330
458
100
AcDbEntity
  8
0
  6
Continuous
 62
     7
370
    25
100
AcDbLine
 10
-111.5288623952
 20
24.3153976623
 30
0.0
 11
-112.3137461422
 21
33.4180488997
 31
0.0
  0
LINE
  5
4B0
330
458
100
AcDbEntity
  8
0
  6
Continuous
 62
     7
370
    25
100
AcDbLine
 10
-119.3768933631
 20
8.0792611116
 30
0.0
 11
-117.1035553501
 21
9.2832518973
 31
0.0
  0
LINE
  5
4B1
330
458
100
AcDbEntity
  8
0
  6
Continuous
 62
     7
370
    25
100
AcDbLine
 10
-147.823568817
 20
41.4967917391
 30
0.0
 11
-146.0993350339
 21
21.5000739579
 31
0.0
  0
LINE
  5
4B2
330
458
100
AcDbEntity
  8
0
  6
Continuous
 62
     7
370
    25
100
AcDbLine
 10
-145.516957806
 20
43.4711994844
 30
0.0
 11
-147.6192465772
 21
41.9442997489
 31
0.0
  0
LINE
  5
4B3
330
458
100
AcDbEntity
  8
0
  6
Continuous
 62
     7
370
    25
100
AcDbLine
 10
32.605583718
 20
-32.1290420073
 30
0.0
 11
30.8813499348
 21
-12.1323242262
 31
0.0
  0
LINE
  5
4B4
330
458
100
AcDbEntity
  8
0
  6
Continuous
 62
     7
370
    25
100
AcDbLine
 10
-5.1912842329
 20
-6.5491534369
 30
0.0
 11
-3.4670504497
 21
-26.545871218
 31
0.0
  0
LINE
  5
4B5
330
458
100
AcDbEntity
  8
0
  6
Continuous
 62
     7
370
    25
100
AcDbLine
 10
0.4063401953
 20
-0.1216871482
 30
0.0
 11
-5.0925921606
 21
-5.8699626788
 31
0.0
  0
LINE
  5
4B6
330
458
100
AcDbEntity
  8
0
  6
Continuous
 62
     7
370
    25
100
AcDbLine
 10
0.4063401953
 20
-0.1216871482
 30
0.0
 11
33.2138588992
 21
-9.9465911027
 31
0.0
  0
LINE
  5
4B7
330
458
100
AcDbEntity
  8
0
  6
Continuous
 62
     7
370
    25
100
AcDbLine
 10
31.111570128
 20
-11.4734908382
 30
0.0
 11
33.2138588992
 21
-9.9465911027
 31
0.0
  0
LINE
  5
4B8
330
458
100
AcDbEntity
  8
0
  6
Continuous
 62
     7
370
    25
100
AcDbLine
 10
31.5492204458
 20
-12.0280405413
 30
0.0
 11
33.2734542289
 21
-32.0247583225
 31
0.0
  0
LINE
  5
4B9
330
458
100
AcDbEntity
  8
0
  6
Continuous
 62
     7
370
    25
100
AcDbLine
 10
33.3540846192
 20
-10.7171613383
 30
0.0
 11
31.5492204458
 21
-12.0280405413
 31
0.0
  0
LINE
  5
4BA
330
458
100
AcDbEntity
  8
0
  6
Continuous
 62
     7
370
    25
100
AcDbLine
 10
35.0783184023
 20
-30.7138791195
 30
0.0
 11
33.3540846192
 21
-10.7171613383
 31
0.0
  0
LINE
  5
4BB
330
458
100
AcDbEntity
  8
0
  6
Continuous
 62
     7
370
    25
100
AcDbLine
 10
33.2734542289
 20
-32.0247583225
 30
0.0
 11
35.0783184023
 21
-30.7138791195
 31
0.0
  0
LINE
  5
4BC
330
458
100
AcDbEntity
  8
0
  6
Continuous
 62
     7
370
    25
100
AcDbLine
 10
-121.3726240139
 20
28.9525472189
 30
0.0
 11
-112.4586836246
 21
33.6734915004
 31
0.0
  0
LINE
  5
4BD
330
458
100
AcDbEntity
  8
0
  6
Continuous
 62
     7
370
    25
100
AcDbLine
 10
-112.4411542975
 20
32.8913218736
 30
0.0
 11
-120.992700371
 21
28.3623065593
 31
0.0
  0
LINE
  5
4BE
330
458
100
AcDbEntity
  8
0
  6
Continuous
 62
     7
370
    25
100
AcDbLine
 10
-120.992700371
 20
28.3623065593
 30
0.0
 11
-119.2684665878
 21
8.3655887781
 31
0.0
  0
LINE
  5
4BF
330
458
100
AcDbEntity
  8
0
  6
Continuous
 62
     7
370
    25
100
AcDbLine
 10
-145.260611812
 20
43.5013562687
 30
0.0
 11
-147.3629005832
 21
41.9744565332
 31
0.0
  0
LINE
  5
4C0
330
458
100
AcDbEntity
  8
0
  6
Continuous
 62
     7
370
    25
100
AcDbLine
 10
-112.5236533426
 20
33.6975830657
 30
0.0
 11
-145.260611812
 21
43.5013562687
 31
0.0
  0
LINE
  5
4C1
330
458
100
AcDbEntity
  8
0
  6
Continuous
 62
     7
370
    25
100
AcDbLine
 10
-120.030916226
 20
8.3616387389
 30
0.0
 11
-121.7551500092
 21
28.3583565201
 31
0.0
  0
LINE
  5
4C2
330
458
100
AcDbEntity
  8
0
  6
Continuous
 62
     7
370
    25
100
AcDbLine
 10
-147.6510050528
 20
41.3329578136
 30
0.0
 11
-145.9267712697
 21
21.3362400324
 31
0.0
  0
LINE
  5
4C3
330
458
100
AcDbEntity
  8
0
  6
Continuous
 62
     7
370
    25
100
AcDbLine
 10
-118.4427152345
 20
10.3484319597
 30
0.0
 11
-119.9120622845
 21
27.3891131993
 31
0.0
  0
LINE
  5
4C4
330
458
100
AcDbEntity
  8
0
  6
Continuous
 62
     7
370
    25
100
AcDbLine
 10
-119.7783210702
 20
27.6417695468
 30
0.0
 11
-117.6951285922
 21
28.7450566664
 31
0.0
  0
LINE
  5
4C5
330
458
100
AcDbEntity
  8
0
  6
Continuous
 62
     8
370
    25
100
AcDbLine
 10
-111.7122278648
 20
24.4376328787
 30
0.0
 11
-112.4411542975
 21
32.8913218736
 31
0.0
  0
LINE
  5
4C6
330
458
100
AcDbEntity
  8
0
  6
Continuous
 62
     8
370
    25
100
AcDbLine
 10
-119.2684665878
 20
8.3655887781
 30
0.0
 11
-117.2856679063
 21
9.4157059753
 31
0.0
  0
LINE
  5
4C7
330
458
100
AcDbEntity
  8
0
  6
Continuous
 62
     8
370
    25
100
AcDbLine
 10
-119.7783210702
 20
27.6417695468
 30
0.0
 11
-119.1992975146
 21
27.1990600214
 31
0.0
  0
ARC
  5
4C8
330
458
100
AcDbEntity
  8
0
  6
Continuous
 62
     7
370
    25
100
AcDbCircle
 10
32.8732872542
 20
-31.9049198755
 30
0.0
 40
0.4999999999999825
100
AcDbArc
 50
256.1249777885
 51
305.9910360591
  0
ARC
  5
4C9
330
458
100
AcDbEntity
  8
0
  6
Continuous
 62
     7
370
    25
100
AcDbCircle
 10
-5.0551088175
 20
-6.304673935
 30
0.0
 40
0.5000000000000177
100
AcDbArc
 50
136.2700015788
 51
184.9281873053
  0
ARC
  5
4CA
330
458
100
AcDbEntity
  8
0
  6
Continuous
 62
     7
370
    25
100
AcDbCircle
 10
-3.3308750344
 20
-26.3013917161
 30
0.0
 40
0.4999999999999845
100
AcDbArc
 50
184.9281873053
 51
265.7742977469
  0
ARC
  5
4CB
330
458
100
AcDbEntity
  8
0
  6
Continuous
 62
     7
370
    25
100
AcDbCircle
 10
-119.6109068876
 20
8.5211181817
 30
0.0
 40
0.5000000000000483
100
AcDbArc
 50
234.9242114943
 51
297.9063040545
  0
ARC
  5
4CC
330
458
100
AcDbEntity
  8
0
  6
Continuous
 62
     7
370
    25
100
AcDbCircle
 10
-147.3254172401
 20
41.5397452771
 30
0.0
 40
0.5000000000000439
100
AcDbArc
 50
125.9910360591
 51
184.9281873053
  0
ARC
  5
4CD
330
458
100
AcDbEntity
  8
0
  6
Continuous
 62
     7
370
    25
100
AcDbCircle
 10
-145.601183457
 20
21.5430274959
 30
0.0
 40
0.4999999999999711
100
AcDbArc
 50
184.9281873053
 51
250.3073717663
  0
ARC
  5
4CE
330
458
100
AcDbEntity
  8
0
  6
Continuous
 62
     7
370
    25
100
AcDbCircle
 10
-20.3981959466
 20
-224.1238569243
 30
0.0
 40
218.1054831074024
100
AcDbArc
 50
76.4016860545
 51
86.0019375653
  0
ARC
  5
4CF
330
458
100
AcDbEntity
  8
0
  6
Continuous
 62
     7
370
    25
100
AcDbCircle
 10
-3.7998352935
 20
-6.4045767844
 30
0.0
 40
1.398939798283712
100
AcDbArc
 50
157.5326671783
 51
185.9319558462
  0
ARC
  5
4D0
330
458
100
AcDbEntity
  8
0
  6
Continuous
 62
     7
370
    25
100
AcDbCircle
 10
-20.3549513505
 20
-224.2379875458
 30
0.0
 40
218.9007398168143
100
AcDbArc
 50
76.4016860545
 51
86.0019375653
  0
ARC
  5
4D1
330
458
100
AcDbEntity
  8
0
  6
Continuous
 62
     7
370
    25
100
AcDbCircle
 10
31.7184180152
 20
-12.0551857401
 30
0.0
 40
0.8406148447702029
100
AcDbArc
 50
136.2123625852
 51
185.2651177631
  0
ARC
  5
4D2
330
458
100
AcDbEntity
  8
0
  6
Continuous
 62
     7
370
    25
100
AcDbCircle
 10
-18.6739621635
 20
-244.1205747055
 30
0.0
 40
218.105483107403
100
AcDbArc
 50
76.4016860545
 51
86.0019375653
  0
ARC
  5
4D3
330
458
100
AcDbEntity
  8
0
  6
Continuous
 62
     7
370
    25
100
AcDbCircle
 10
31.0894943096
 20
-11.2745719962
 30
0.0
 40
0.8826454377272938
100
AcDbArc
 50
256.3601077461
 51
301.3893048697
  0
ARC
  5
4D4
330
458
100
AcDbEntity
  8
0
  6
Continuous
 62
     7
370
    25
100
AcDbCircle
 10
30.8845242545
 20
-12.1026468609
 30
0.0
 40
0.6688700394205576
100
AcDbArc
 50
6.4041453133
 51
70.1568190773
  0
ARC
  5
4D5
330
458
100
AcDbEntity
  8
0
  6
Continuous
 62
     7
370
    25
100
AcDbCircle
 10
32.8137280927
 20
-31.2712897774
 30
0.0
 40
0.8826454377273222
100
AcDbArc
 50
256.3601077461
 51
301.3893048697
  0
ARC
  5
4D6
330
458
100
AcDbEntity
  8
0
  6
Continuous
 62
     7
370
    25
100
AcDbCircle
 10
0.3055752194
 20
-0.38535068
 30
0.0
 40
0.2822623572601207
100
AcDbArc
 50
69.0845139675
 51
133.2196488182
  0
ARC
  5
4D7
330
458
100
AcDbEntity
  8
0
  6
Continuous
 62
     7
370
    25
100
AcDbCircle
 10
-121.7478249183
 20
28.2936453059
 30
0.0
 40
0.7582397045935616
100
AcDbArc
 50
5.195449896
 51
60.3413589102
  0
ARC
  5
4D8
330
458
100
AcDbEntity
  8
0
  6
Continuous
 62
     7
370
    25
100
AcDbCircle
 10
-183.0016409649
 20
-61.6042880057
 30
0.0
 40
109.5384687507105
100
AcDbArc
 50
55.762511431
 51
71.012997996
  0
ARC
  5
4D9
330
458
100
AcDbEntity
  8
0
  6
Continuous
 62
     7
370
    25
100
AcDbCircle
 10
-112.6693912885
 20
33.2049090936
 30
0.0
 40
0.51377737553764
100
AcDbArc
 50
65.7879585347
 51
73.5212498063
  0
ARC
  5
4DA
330
458
100
AcDbEntity
  8
0
  6
Continuous
 62
     7
370
    25
100
AcDbCircle
 10
-121.3777699466
 20
29.1024591689
 30
0.0
 40
0.8343287503143691
100
AcDbArc
 50
243.1076404166
 51
297.486021218
  0
ARC
  5
4DB
330
458
100
AcDbEntity
  8
0
  6
Continuous
 62
     7
370
    25
100
AcDbCircle
 10
-121.1415578404
 20
28.3835662832
 30
0.0
 40
0.6141098286947763
100
AcDbArc
 50
112.102331733
 51
182.3527046014
  0
ARC
  5
4DC
330
458
100
AcDbEntity
  8
0
  6
Continuous
 62
     7
370
    25
100
AcDbCircle
 10
-119.6535361634
 20
9.1057413878
 30
0.0
 40
0.8343287503145331
100
AcDbArc
 50
243.1076404166
 51
297.486021218
  0
ARC
  5
4DD
330
458
100
AcDbEntity
  8
0
  6
Continuous
 62
     7
370
    25
100
AcDbCircle
 10
-183.1602714665
 20
-61.869489726
 30
0.0
 40
109.1405203368074
100
AcDbArc
 50
55.762511431
 51
71.012997996
  0
ARC
  5
4DE
330
458
100
AcDbEntity
  8
0
  6
Continuous
 62
     7
370
    25
100
AcDbCircle
 10
-146.9185419694
 20
41.3894450786
 30
0.0
 40
0.7346379922866468
100
AcDbArc
 50
127.2193047465
 51
184.4098992826
  0
ARC
  5
4DF
330
458
100
AcDbEntity
  8
0
  6
Continuous
 62
     7
370
    25
100
AcDbCircle
 10
-181.4360376833
 20
-81.8662075071
 30
0.0
 40
109.140520336808
100
AcDbArc
 50
55.762511431
 51
71.012997996
  0
ARC
  5
4E0
330
458
100
AcDbEntity
  8
0
  6
Continuous
 62
     7
370
    25
100
AcDbCircle
 10
-145.3588865671
 20
43.2321296072
 30
0.0
 40
0.2866023773711992
100
AcDbArc
 50
69.9465988408
 51
123.4723834433
  0
ARC
  5
4E1
330
458
100
AcDbEntity
  8
0
  6
Continuous
 62
     8
370
    25
100
AcDbCircle
 10
32.8789003251
 20
-32.14691733
 30
0.0
 40
0.2739005200783481
100
AcDbArc
 50
176.2580977847
 51
242.6942397676
  0
ARC
  5
4E2
330
458
100
AcDbEntity
  8
0
  6
Continuous
 62
     8
370
    25
100
AcDbCircle
 10
32.9718204248
 20
-32.074317977
 30
0.0
 40
0.3056781169169385
100
AcDbArc
 50
309.7094585495
 51
9.3305623781
  0
ARC
  5
4E3
330
458
100
AcDbEntity
  8
0
  6
Continuous
 62
     8
370
    25
100
AcDbCircle
 10
-5.173982539
 20
-6.2072001531
 30
0.0
 40
0.3469200307825481
100
AcDbArc
 50
76.4314553233
 51
134.3310889368
  0
ARC
  5
4E4
330
458
100
AcDbEntity
  8
0
  6
Continuous
 62
     8
370
    25
100
AcDbCircle
 10
-119.5360807083
 20
8.3032356943
 30
0.0
 40
0.2747821401759072
100
AcDbArc
 50
305.4028714486
 51
13.115704165
  0
ARC
  5
4E5
330
458
100
AcDbEntity
  8
0
  6
Continuous
 62
     8
370
    25
100
AcDbCircle
 10
-119.7007454655
 20
8.3769590056
 30
0.0
 40
0.3305260075331837
100
AcDbArc
 50
182.6566781822
 51
233.3085383486
  0
ARC
  5
4E6
330
458
100
AcDbEntity
  8
0
  6
Continuous
 62
     8
370
    25
100
AcDbCircle
 10
-145.6470159733
 20
21.323959198
 30
0.0
 40
0.28002472170095
100
AcDbArc
 50
177.4864157281
 51
243.9438430751
  0
ARC
  5
4E7
330
458
100
AcDbEntity
  8
0
  6
Continuous
 62
     8
370
    25
100
AcDbCircle
 10
-147.6074963066
 20
41.551581257
 30
0.0
 40
0.2229107916029277
100
AcDbArc
 50
194.228597859
 51
258.7444943573
  0
ARC
  5
4E8
330
458
100
AcDbEntity
  8
0
  6
Continuous
 62
     8
370
    25
100
AcDbCircle
 10
-147.4611753383
 20
41.7052298718
 30
0.0
 40
0.2866023773711558
100
AcDbArc
 50
69.9465988408
 51
123.4723834433
  0
ARC
  5
4E9
330
458
100
AcDbEntity
  8
0
  6
Continuous
 62
     8
370
    25
100
AcDbCircle
 10
-145.8901485501
 20
21.5476105295
 30
0.0
 40
0.214519720865004
100
AcDbArc
 50
192.8027526015
 51
260.1703396147
  0
VIEWPORT
  5
4FA
330
458
100
AcDbEntity
  8
0
100
AcDbViewport
 10
0.0
 20
0.0
 30
0.0
 40
205.6
 41
156.0
 68
     1
 69
     1
 12
-70.0
 22
12.75
 13
0.0
 23
0.0
 14
10.0
 24
10.0
 15
10.0
 25
10.0
 16
0.0
 26
0.0
 36
1.0
 17
0.0
 27
0.0
 37
0.0
 42
50.0
 43
0.0
 44
0.0
 45
173.360311284
 50
0.0
 51
0.0
 72
   100
 90
   557152
  1

281
     0
 71
     1
 74
     0
110
0.0
120
0.0
130
0.0
111
1.0
121
0.0
131
0.0
112
0.0
122
1.0
132
0.0
 79
     0
146
0.0
  0
ENDBLK
  5
45B
330
458
100
AcDbEntity
  8
0
100
AcDbBlockEnd
  0
ENDSEC
  0
SECTION
  2
ENTITIES
  0
LINE
  5
95
330
1F
100
AcDbEntity
  8
0
  6
Continuous
 62
     7
370
    25
100
AcDbLine
 10
2.8220175259
 20
12.5869280212
 30
0.0
 11
2.6446953448
 21
12.1194273858
 31
0.0
  0
LINE
  5
96
330
1F
100
AcDbEntity
  8
0
  6
Continuous
 62
     7
370
    25
100
AcDbLine
 10
2.1522914683
 20
12.2062514747
 30
0.0
 11
2.6446953448
 21
12.1194273858
 31
0.0
  0
LINE
  5
97
330
1F
100
AcDbEntity
  8
0
  6
Continuous
 62
     7
370
    25
100
AcDbLine
 10
2.6446953448
 20
12.1194273858
 30
0.0
 11
0.5077133059
 21
0.0
 31
0.0
  0
LINE
  5
98
330
1F
100
AcDbEntity
  8
0
  6
Continuous
 62
     7
370
    25
100
AcDbLine
 10
41.5
 20
0.0
 30
0.0
 11
41.5
 21
3.5341541805
 31
0.0
  0
LINE
  5
99
330
1F
100
AcDbEntity
  8
0
  6
Continuous
 62
     7
370
    25
100
AcDbLine
 10
0.0
 20
0.0
 30
0.0
 11
41.5
 21
0.0
 31
0.0
  0
LINE
  5
9A
330
1F
100
AcDbEntity
  8
0
  6
Continuous
 62
     7
370
    25
100
AcDbLine
 10
0.0
 20
0.0
 30
0.0
 11
2.1522914683
 21
12.2062514747
 31
0.0
  0
LINE
  5
9B
330
1F
100
AcDbEntity
  8
0
  6
Continuous
 62
     7
370
    25
100
AcDbLine
 10
41.5
 20
3.5341541805
 30
0.0
 11
42.0
 21
3.5341541805
 31
0.0
  0
LINE
  5
9C
330
1F
100
AcDbEntity
  8
0
  6
Continuous
 62
     7
370
    25
100
AcDbLine
 10
42.0
 20
3.5341541805
 30
0.0
 11
42.0
 21
0.5
 31
0.0
  0
LINE
  5
9D
330
1F
100
AcDbEntity
  8
0
  6
Continuous
 62
     7
370
    25
100
AcDbLine
 10
41.5
 20
3.5341541805
 30
0.0
 11
41.5361625772
 21
4.0328447339
 31
0.0
  0
LINE
  5
9E
330
1F
100
AcDbEntity
  8
0
  6
Continuous
 62
     7
370
    25
100
AcDbLine
 10
-142.8220175259
 20
12.5869280212
 30
0.0
 11
-142.6446953448
 21
12.1194273858
 31
0.0
  0
LINE
  5
9F
330
1F
100
AcDbEntity
  8
0
  6
Continuous
 62
     7
370
    25
100
AcDbLine
 10
-181.5361625772
 20
4.0328447339
 30
0.0
 11
-181.5
 21
3.5341541805
 31
0.0
  0
LINE
  5
A0
330
1F
100
AcDbEntity
  8
0
  6
Continuous
 62
     7
370
    25
100
AcDbLine
 10
-182.0
 20
0.0
 30
0.0
 11
-182.0
 21
3.5341541805
 31
0.0
  0
LINE
  5
A1
330
1F
100
AcDbEntity
  8
0
  6
Continuous
 62
     7
370
    25
100
AcDbLine
 10
-182.0
 20
3.5341541805
 30
0.0
 11
-181.5
 21
3.5341541805
 31
0.0
  0
LINE
  5
A2
330
1F
100
AcDbEntity
  8
0
  6
Continuous
 62
     7
370
    25
100
AcDbLine
 10
-181.5
 20
3.5341541805
 30
0.0
 11
-181.5
 21
0.0
 31
0.0
  0
LINE
  5
A3
330
1F
100
AcDbEntity
  8
0
  6
Continuous
 62
     7
370
    25
100
AcDbLine
 10
-140.5958767963
 20
0.0
 30
0.0
 11
-182.0
 21
0.0
 31
0.0
  0
LINE
  5
A4
330
1F
100
AcDbEntity
  8
0
  6
Continuous
 62
     7
370
    25
100
AcDbLine
 10
-142.1522914683
 20
12.2062514747
 30
0.0
 11
-140.1034729198
 21
0.5868240888
 31
0.0
  0
LINE
  5
A5
330
1F
100
AcDbEntity
  8
0
  6
Continuous
 62
     7
370
    25
100
AcDbLine
 10
-140.5090527075
 20
0.0075961235
 30
0.0
 11
-142.6446953448
 21
12.1194273858
 31
0.0
  0
LINE
  5
A6
330
1F
100
AcDbEntity
  8
0
  6
Continuous
 62
     7
370
    25
100
AcDbLine
 10
-142.1522914683
 20
12.2062514747
 30
0.0
 11
-142.6446953448
 21
12.1194273858
 31
0.0
  0
ARC
  5
A7
330
1F
100
AcDbEntity
  8
0
  6
Continuous
 62
     7
370
    25
100
AcDbCircle
 10
2.6446953448
 20
12.1194273858
 30
0.0
 40
0.4999999999999945
100
AcDbArc
 50
69.2283502581
 51
170.0
  0
ARC
  5
A8
330
1F
100
AcDbEntity
  8
0
  6
Continuous
 62
     7
370
    25
100
AcDbCircle
 10
51.4540372475
 20
140.8026987624
 30
0.0
 40
137.6289801936835
100
AcDbArc
 50
249.2283502581
 51
265.8524526043
  0
ARC
  5
A9
330
1F
100
AcDbEntity
  8
0
  6
Continuous
 62
     7
370
    25
100
AcDbCircle
 10
41.5
 20
0.5
 30
0.0
 40
0.5000000000000177
100
AcDbArc
 50
270.0
 51
360.0
  0
ARC
  5
AA
330
1F
100
AcDbEntity
  8
0
  6
Continuous
 62
     7
370
    25
100
AcDbCircle
 10
51.4540372475
 20
140.8026987624
 30
0.0
 40
137.1289801936858
100
AcDbArc
 50
249.2283502581
 51
265.8524526043
  0
ARC
  5
AB
330
1F
100
AcDbEntity
  8
0
  6
Continuous
 62
     7
370
    25
100
AcDbCircle
 10
41.5
 20
3.5341541805
 30
0.0
 40
0.5000000000000324
100
AcDbArc
 50
0.0
 51
85.8524526043
  0
ARC
  5
AC
330
1F
100
AcDbEntity
  8
0
  6
Continuous
 62
     7
370
    25
100
AcDbCircle
 10
-191.4540372475
 20
140.8026987624
 30
0.0
 40
137.1289801936858
100
AcDbArc
 50
274.1475473957
 51
290.7716497419
  0
ARC
  5
AD
330
1F
100
AcDbEntity
  8
0
  6
Continuous
 62
     7
370
    25
100
AcDbCircle
 10
-191.4540372475
 20
140.8026987624
 30
0.0
 40
137.6289801936858
100
AcDbArc
 50
274.1475473957
 51
290.7716497419
  0
ARC
  5
AE
330
1F
100
AcDbEntity
  8
0
  6
Continuous
 62
     7
370
    25
100
AcDbCircle
 10
-140.5958767963
 20
0.5
 30
0.0
 40
0.4999999999999725
100
AcDbArc
 50
270.0
 51
10.0
  0
ARC
  5
AF
330
1F
100
AcDbEntity
  8
0
  6
Continuous
 62
     7
370
    25
100
AcDbCircle
 10
-142.6446953448
 20
12.1194273858
 30
0.0
 40
0.5000000000000552
100
AcDbArc
 50
10.0
 51
110.7716497419
  0
ARC
  5
B0
330
1F
100
AcDbEntity
  8
0
  6
Continuous
 62
     7
370
    25
100
AcDbCircle
 10
-181.5
 20
3.5341541805
 30
0.0
 40
0.5000000000000403
100
AcDbArc
 50
94.1475473957
 51
180.0
  0
ARC
  5
B1
330
1F
100
AcDbEntity
  8
0
  6
Continuous
 62
     7
370
    25
100
AcDbCircle
 10
-70.0
 20
-159.088461373
 30
0.0
 40
184.388461373021
100
AcDbArc
 50
67.0533339723
 51
112.9466660277
  0
ARC
  5
B2
330
1F
100
AcDbEntity
  8
0
  6
Continuous
 62
     7
370
    25
100
AcDbCircle
 10
-70.0
 20
-159.088461373
 30
0.0
 40
184.588461373022
100
AcDbArc
 50
67.0676048875
 51
112.9323951125
  0
ARC
  5
B3
330
1F
100
AcDbEntity
  8
0
  6
Continuous
 62
     7
370
    25
100
AcDbCircle
 10
-70.0
 20
-159.088461373
 30
0.0
 40
181.5884613730194
100
AcDbArc
 50
66.8501513493
 51
113.1498486507
  0
CIRCLE
  5
C0
330
1B
100
AcDbEntity
 67
     1
  8
0
  6
Continuous
 62
     7
370
    25
100
AcDbCircle
 10
10.0
 20
12.0
 30
0.0
 40
1.749999999999995
  0
CIRCLE
  5
C1
330
1B
100
AcDbEntity
 67
     1
  8
0
  6
Continuous
 62
     7
370
    25
100
AcDbCircle
 10
10.0
 20
12.0
 30
0.0
 40
3.000000000000004
  0
CIRCLE
  5
C2
330
1B
100
AcDbEntity
 67
     1
  8
0
  6
Continuous
 62
     7
370
    25
100
AcDbCircle
 10
26.0
 20
12.0
 30
0.0
 40
1.75
  0
CIRCLE
  5
C3
330
1B
100
AcDbEntity
 67
     1
  8
0
  6
Continuous
 62
     7
370
    25
100
AcDbCircle
 10
26.0
 20
12.0
 30
0.0
 40
3.000000000000007
  0
CIRCLE
  5
D1
330
1B
100
AcDbEntity
 67
     1
  8
0
  6
Continuous
 62
     7
370
    25
100
AcDbCircle
 10
-166.0
 20
12.0
 30
0.0
 40
3.000000000000028
  0
CIRCLE
  5
D2
330
1B
100
AcDbEntity
 67
     1
  8
0
  6
Continuous
 62
     7
370
    25
100
AcDbCircle
 10
-166.0
 20
12.0
 30
0.0
 40
1.749999999999972
  0
CIRCLE
  5
D8
330
1B
100
AcDbEntity
 67
     1
  8
0
  6
Continuous
 62
     7
370
    25
100
AcDbCircle
 10
-150.0
 20
12.0
 30
0.0
 40
1.750000000000028
  0
CIRCLE
  5
D9
330
1B
100
AcDbEntity
 67
     1
  8
0
  6
Continuous
 62
     7
370
    25
100
AcDbCircle
 10
-150.0
 20
12.0
 30
0.0
 40
2.999999999999972
  0
LINE
  5
DC
330
1B
100
AcDbEntity
 67
     1
  8
0
  6
Continuous
 62
     7
370
    25
100
AcDbLine
 10
-140.0958767963
 20
0.4131759112
 30
0.0
 11
-140.0958767963
 21
23.5868240888
 31
0.0
  0
LINE
  5
DD
330
1B
100
AcDbEntity
 67
     1
  8
0
  6
Continuous
 62
     7
370
    25
100
AcDbLine
 10
40.0
 20
22.0
 30
0.0
 11
40.0
 21
2.0
 31
0.0
  0
LINE
  5
DE
330
1B
100
AcDbEntity
 67
     1
  8
0
  6
Continuous
 62
     7
370
    25
100
AcDbLine
 10
2.0308532238
 20
22.0
 30
0.0
 11
40.0
 21
22.0
 31
0.0
  0
LINE
  5
DF
330
1B
100
AcDbEntity
 67
     1
  8
0
  6
Continuous
 62
     7
370
    25
100
AcDbLine
 10
2.0308532238
 20
22.0
 30
0.0
 11
2.0308532238
 21
2.0
 31
0.0
  0
LINE
  5
E0
330
1B
100
AcDbEntity
 67
     1
  8
0
  6
Continuous
 62
     7
370
    25
100
AcDbLine
 10
2.0308532238
 20
2.0
 30
0.0
 11
40.0
 21
2.0
 31
0.0
  0
LINE
  5
E1
330
1B
100
AcDbEntity
 67
     1
  8
0
  6
Continuous
 62
     7
370
    25
100
AcDbLine
 10
0.0
 20
23.5
 30
0.0
 11
0.0
 21
0.5
 31
0.0
  0
LINE
  5
E2
330
1B
100
AcDbEntity
 67
     1
  8
0
  6
Continuous
 62
     7
370
    25
100
AcDbLine
 10
0.5077133059
 20
24.0
 30
0.0
 11
41.5
 21
24.0
 31
0.0
  0
LINE
  5
E3
330
1B
100
AcDbEntity
 67
     1
  8
0
  6
Continuous
 62
     7
370
    25
100
AcDbLine
 10
41.5
 20
0.0
 30
0.0
 11
41.5
 21
24.0
 31
0.0
  0
LINE
  5
E4
330
1B
100
AcDbEntity
 67
     1
  8
0
  6
Continuous
 62
     7
370
    25
100
AcDbLine
 10
0.5077133059
 20
0.0
 30
0.0
 11
41.5
 21
0.0
 31
0.0
  0
LINE
  5
E5
330
1B
100
AcDbEntity
 67
     1
  8
0
  6
Continuous
 62
     7
370
    25
100
AcDbLine
 10
3.8092899506
 20
22.0
 30
0.0
 11
3.8092899506
 21
2.0
 31
0.0
  0
LINE
  5
E6
330
1B
100
AcDbEntity
 67
     1
  8
0
  6
Continuous
 62
     7
370
    25
100
AcDbLine
 10
42.0
 20
23.5
 30
0.0
 11
42.0
 21
0.5
 31
0.0
  0
LINE
  5
E7
330
1B
100
AcDbEntity
 67
     1
  8
0
  6
Continuous
 62
     7
370
    25
100
AcDbLine
 10
-142.0308532238
 20
22.0
 30
0.0
 11
-142.0308532238
 21
2.0
 31
0.0
  0
LINE
  5
E8
330
1B
100
AcDbEntity
 67
     1
  8
0
  6
Continuous
 62
     7
370
    25
100
AcDbLine
 10
-142.0308532238
 20
22.0
 30
0.0
 11
-180.0
 21
22.0
 31
0.0
  0
LINE
  5
E9
330
1B
100
AcDbEntity
 67
     1
  8
0
  6
Continuous
 62
     7
370
    25
100
AcDbLine
 10
-142.0308532238
 20
2.0
 30
0.0
 11
-180.0
 21
2.0
 31
0.0
  0
LINE
  5
EA
330
1B
100
AcDbEntity
 67
     1
  8
0
  6
Continuous
 62
     7
370
    25
100
AcDbLine
 10
-182.0
 20
23.5
 30
0.0
 11
-182.0
 21
0.5
 31
0.0
  0
LINE
  5
EB
330
1B
100
AcDbEntity
 67
     1
  8
0
  6
Continuous
 62
     7
370
    25
100
AcDbLine
 10
-140.5090527075
 20
24.0
 30
0.0
 11
-181.5
 21
24.0
 31
0.0
  0
LINE
  5
EC
330
1B
100
AcDbEntity
 67
     1
  8
0
  6
Continuous
 62
     7
370
    25
100
AcDbLine
 10
-140.5958767963
 20
0.0
 30
0.0
 11
-140.5958767963
 21
24.0
 31
0.0
  0
LINE
  5
ED
330
1B
100
AcDbEntity
 67
     1
  8
0
  6
Continuous
 62
     7
370
    25
100
AcDbLine
 10
-180.0
 20
22.0
 30
0.0
 11
-180.0
 21
2.0
 31
0.0
  0
LINE
  5
EE
330
1B
100
AcDbEntity
 67
     1
  8
0
  6
Continuous
 62
     7
370
    25
100
AcDbLine
 10
-140.5090527075
 20
0.0
 30
0.0
 11
-181.5
 21
0.0
 31
0.0
  0
LINE
  5
EF
330
1B
100
AcDbEntity
 67
     1
  8
0
  6
Continuous
 62
     7
370
    25
100
AcDbLine
 10
-143.8092899506
 20
22.0
 30
0.0
 11
-143.8092899506
 21
2.0
 31
0.0
  0
LINE
  5
F0
330
1B
100
AcDbEntity
 67
     1
  8
0
  6
Continuous
 62
     7
370
    25
100
AcDbLine
 10
-140.0958767963
 20
22.0
 30
0.0
 11
0.0
 21
22.0
 31
0.0
  0
LINE
  5
F1
330
1B
100
AcDbEntity
 67
     1
  8
0
  6
Continuous
 62
     7
370
    25
100
AcDbLine
 10
-140.0958767963
 20
2.0
 30
0.0
 11
0.0
 21
2.0
 31
0.0
  0
ARC
  5
F2
330
1B
100
AcDbEntity
 67
     1
  8
0
  6
Continuous
 62
     7
370
    25
100
AcDbCircle
 10
0.5038859486
 20
0.5038864005
 30
0.0
 40
0.5039009359874569
100
AcDbArc
 50
180.4419054199
 51
270.4351917536
  0
ARC
  5
F3
330
1B
100
AcDbEntity
 67
     1
  8
0
  6
Continuous
 62
     7
370
    25
100
AcDbCircle
 10
0.5038859486
 20
23.4961135995
 30
0.0
 40
0.5039009359874569
100
AcDbArc
 50
89.5648082465
 51
179.5580945801
  0
ARC
  5
F4
330
1B
100
AcDbEntity
 67
     1
  8
0
  6
Continuous
 62
     7
370
    25
100
AcDbCircle
 10
41.5
 20
23.5
 30
0.0
 40
0.5000000000000213
100
AcDbArc
 50
0.0
 51
90.0
  0
ARC
  5
F5
330
1B
100
AcDbEntity
 67
     1
  8
0
  6
Continuous
 62
     7
370
    25
100
AcDbCircle
 10
41.5
 20
0.5
 30
0.0
 40
0.5000000000000071
100
AcDbArc
 50
270.0
 51
0.0
  0
ARC
  5
F6
330
1B
100
AcDbEntity
 67
     1
  8
0
  6
Continuous
 62
     7
370
    25
100
AcDbCircle
 10
-181.5
 20
0.5
 30
0.0
 40
0.5000000000000363
100
AcDbArc
 50
180.0
 51
270.0
  0
ARC
  5
F7
330
1B
100
AcDbEntity
 67
     1
  8
0
  6
Continuous
 62
     7
370
    25
100
AcDbCircle
 10
-181.5
 20
23.5
 30
0.0
 40
0.5000000000000284
100
AcDbArc
 50
90.0
 51
180.0
  0
ARC
  5
F8
330
1B
100
AcDbEntity
 67
     1
  8
0
  6
Continuous
 62
     7
370
    25
100
AcDbCircle
 10
-140.4980727815
 20
23.5978040148
 30
0.0
 40
0.40234583293588
100
AcDbArc
 50
358.4362171103
 51
91.5637828897
  0
ARC
  5
F9
330
1B
100
AcDbEntity
 67
     1
  8
0
  6
Continuous
 62
     7
370
    25
100
AcDbCircle
 10
-140.4980727815
 20
0.4021959852
 30
0.0
 40
0.4023458329358802
100
AcDbArc
 50
268.4362171103
 51
1.5637828897
  0
VIEWPORT
  5
4EA
330
1B
100
AcDbEntity
 67
     1
  8
0
100
AcDbViewport
 10
0.0
 20
0.0
 30
0.0
 40
205.6
 41
156.0
 68
     1
 69
     1
 12
-70.0
 22
12.75
 13
0.0
 23
0.0
 14
10.0
 24
10.0
 15
10.0
 25
10.0
 16
0.0
 26
0.0
 36
1.0
 17
0.0
 27
0.0
 37
0.0
 42
50.0
 43
0.0
 44
0.0
 45
173.360311284
 50
0.0
 51
0.0
 72
   100
 90
   557152
  1

281
     0
 71
     1
 74
     0
110
0.0
120
0.0
130
0.0
111
1.0
121
0.0
131
0.0
112
0.0
122
1.0
132
0.0
 79
     0
146
0.0
  0
ENDSEC
  0
SECTION
  2
OBJECTS
  0
DICTIONARY
  5
C
330
0
100
AcDbDictionary
281
     1
  3
ACAD_GROUP
350
D
  3
ACAD_LAYOUT
350
1A
  3
ACAD_MLINESTYLE
350
17
  3
ACAD_PLOTSETTINGS
350
19
  3
ACAD_PLOTSTYLENAME
350
E
  3
ACAD_SCALELIST
350
47
  0
DICTIONARY
  5
D
102
{ACAD_REACTORS
330
C
102
}
330
C
100
AcDbDictionary
281
     1
  0
DICTIONARY
  5
1A
102
{ACAD_REACTORS
330
C
102
}
330
C
100
AcDbDictionary
281
     1
  3
_Back
350
26
  3
_Bottom
350
1E7
  3
_Dimetric
350
396
  3
_Front
350
1E
  3
_Isometric
350
22C
  3
_Left
350
16B
  3
_Right
350
1A7
  3
_Trimetric
350
2E0
  3
ISO PERSP
350
459
  3
Model
350
22
  0
DICTIONARY
  5
17
102
{ACAD_REACTORS
330
C
102
}
330
C
100
AcDbDictionary
281
     1
  3
Standard
350
18
  0
DICTIONARY
  5
19
102
{ACAD_REACTORS
330
C
102
}
330
C
100
AcDbDictionary
281
     1
  0
ACDBDICTIONARYWDFLT
  5
E
102
{ACAD_REACTORS
330
C
102
}
330
C
100
AcDbDictionary
281
     1
  3
Normal
350
F
100
AcDbDictionaryWithDefault
340
F
  0
DICTIONARY
  5
47
102
{ACAD_REACTORS
330
C
102
}
330
C
100
AcDbDictionary
281
     1
  3
A0
350
48
  3
A1
350
49
  3
A2
350
4A
  3
A3
350
4B
  3
A4
350
4C
  3
A5
350
4D
  3
A6
350
4E
  3
A7
350
4F
  3
A8
350
50
  3
A9
350
51
  3
B0
350
52
  3
B1
350
53
  3
B2
350
54
  3
B3
350
55
  3
B4
350
56
  3
B5
350
57
  3
B6
350
58
  3
B7
350
59
  3
B8
350
5A
  3
B9
350
5B
  3
C0
350
5C
  3
C1
350
5D
  3
C2
350
5E
  3
C3
350
5F
  3
C4
350
60
  3
C5
350
61
  3
C6
350
62
  3
C7
350
63
  3
C8
350
64
  3
C9
350
65
  3
D0
350
66
  3
D1
350
67
  3
D2
350
68
  0
LAYOUT
  5
26
102
{ACAD_REACTORS
330
1A
102
}
330
1A
100
AcDbPlotSettings
  1

  2
none_device
  4
ISO_A4_(210.00_x_297.00_MM)
  6

 40
7.5
 41
20.0
 42
7.5
 43
20.0
 44
210.0
 45
297.0
 46
0.0
 47
0.0
 48
0.0
 49
0.0
140
0.0
141
0.0
142
1.0
143
0.8715953307
 70
   688
 72
     1
 73
     1
 74
     1
  7

 75
     0
147
1.1473214286
148
182.0
149
0.0001498477
100
AcDbLayout
  1
_Back
 70
     1
 71
     2
 10
0.0
 20
0.0
 11
0.0
 21
0.0
 12
0.0
 22
0.0
 32
0.0
 14
0.0
 24
0.0
 34
0.0
 15
0.0
 25
0.0
 35
0.0
146
0.0
 13
0.0
 23
0.0
 33
0.0
 16
1.0
 26
0.0
 36
0.0
 17
0.0
 27
1.0
 37
0.0
 76
     0
330
23
331
4EC
  0
LAYOUT
  5
1E7
102
{ACAD_REACTORS
330
1A
102
}
330
1A
100
AcDbPlotSettings
  1

  2
none_device
  4
ISO_A4_(210.00_x_297.00_MM)
  6

 40
7.5
 41
20.0
 42
7.5
 43
20.0
 44
210.0
 45
297.0
 46
0.0
 47
0.0
 48
0.0
 49
0.0
140
0.0
141
0.0
142
1.0
143
0.8715953307
 70
   688
 72
     1
 73
     1
 74
     1
  7

 75
     0
147
1.1473214286
148
182.0
149
0.0001498477
100
AcDbLayout
  1
_Bottom
 70
     1
 71
     5
 10
0.0
 20
0.0
 11
0.0
 21
0.0
 12
0.0
 22
0.0
 32
0.0
 14
0.0
 24
0.0
 34
0.0
 15
0.0
 25
0.0
 35
0.0
146
0.0
 13
0.0
 23
0.0
 33
0.0
 16
1.0
 26
0.0
 36
0.0
 17
0.0
 27
1.0
 37
0.0
 76
     0
330
1E6
331
4F2
  0
LAYOUT
  5
396
102
{ACAD_REACTORS
330
1A
102
}
330
1A
100
AcDbPlotSettings
  1

  2
none_device
  4
ISO_A4_(210.00_x_297.00_MM)
  6

 40
7.5
 41
20.0
 42
7.5
 43
20.0
 44
210.0
 45
297.0
 46
0.0
 47
0.0
 48
0.0
 49
0.0
140
0.0
141
0.0
142
1.0
143
0.8715953307
 70
   688
 72
     1
 73
     1
 74
     1
  7

 75
     0
147
1.1473214286
148
182.0
149
0.0001498477
100
AcDbLayout
  1
_Dimetric
 70
     1
 71
     8
 10
0.0
 20
0.0
 11
0.0
 21
0.0
 12
0.0
 22
0.0
 32
0.0
 14
0.0
 24
0.0
 34
0.0
 15
0.0
 25
0.0
 35
0.0
146
0.0
 13
0.0
 23
0.0
 33
0.0
 16
1.0
 26
0.0
 36
0.0
 17
0.0
 27
1.0
 37
0.0
 76
     0
330
395
331
4F8
  0
LAYOUT
  5
1E
102
{ACAD_REACTORS
330
1A
102
}
330
1A
100
AcDbPlotSettings
  1

  2
none_device
  4
ISO_A4_(210.00_x_297.00_MM)
  6

 40
7.5
 41
20.0
 42
7.5
 43
20.0
 44
210.0
 45
297.0
 46
0.0
 47
0.0
 48
0.0
 49
0.0
140
0.0
141
0.0
142
1.0
143
0.8715953307
 70
   688
 72
     1
 73
     1
 74
     1
  7

 75
     0
147
1.1473214286
148
182.0
149
0.0001498477
100
AcDbLayout
  1
_Front
 70
     1
 71
     1
 10
-199.4319066148
 20
-6.5371148283
 11
59.4319066148
 21
176.497904627
 12
0.0
 22
0.0
 32
0.0
 14
-182.0
 24
-0.0001498477
 34
0.0
 15
42.0
 25
24.0001498477
 35
0.0
146
0.0
 13
0.0
 23
0.0
 33
0.0
 16
1.0
 26
0.0
 36
0.0
 17
0.0
 27
1.0
 37
0.0
 76
     0
330
1B
331
4EA
  0
LAYOUT
  5
22C
102
{ACAD_REACTORS
330
1A
102
}
330
1A
100
AcDbPlotSettings
  1

  2
none_device
  4
ISO_A4_(210.00_x_297.00_MM)
  6

 40
7.5
 41
20.0
 42
7.5
 43
20.0
 44
210.0
 45
297.0
 46
0.0
 47
0.0
 48
0.0
 49
0.0
140
0.0
141
0.0
142
1.0
143
0.8715953307
 70
   688
 72
     1
 73
     1
 74
     1
  7

 75
     0
147
1.1473214286
148
182.0
149
0.0001498477
100
AcDbLayout
  1
_Isometric
 70
     1
 71
     6
 10
0.0
 20
0.0
 11
0.0
 21
0.0
 12
0.0
 22
0.0
 32
0.0
 14
0.0
 24
0.0
 34
0.0
 15
0.0
 25
0.0
 35
0.0
146
0.0
 13
0.0
 23
0.0
 33
0.0
 16
1.0
 26
0.0
 36
0.0
 17
0.0
 27
1.0
 37
0.0
 76
     0
330
22B
331
4F4
  0
LAYOUT
  5
16B
102
{ACAD_REACTORS
330
1A
102
}
330
1A
100
AcDbPlotSettings
  1

  2
none_device
  4
ISO_A4_(210.00_x_297.00_MM)
  6

 40
7.5
 41
20.0
 42
7.5
 43
20.0
 44
210.0
 45
297.0
 46
0.0
 47
0.0
 48
0.0
 49
0.0
140
0.0
141
0.0
142
1.0
143
0.8715953307
 70
   688
 72
     1
 73
     1
 74
     1
  7

 75
     0
147
1.1473214286
148
182.0
149
0.0001498477
100
AcDbLayout
  1
_Left
 70
     1
 71
     3
 10
0.0
 20
0.0
 11
0.0
 21
0.0
 12
0.0
 22
0.0
 32
0.0
 14
0.0
 24
0.0
 34
0.0
 15
0.0
 25
0.0
 35
0.0
146
0.0
 13
0.0
 23
0.0
 33
0.0
 16
1.0
 26
0.0
 36
0.0
 17
0.0
 27
1.0
 37
0.0
 76
     0
330
16A
331
4EE
  0
LAYOUT
  5
1A7
102
{ACAD_REACTORS
330
1A
102
}
330
1A
100
AcDbPlotSettings
  1

  2
none_device
  4
ISO_A4_(210.00_x_297.00_MM)
  6

 40
7.5
 41
20.0
 42
7.5
 43
20.0
 44
210.0
 45
297.0
 46
0.0
 47
0.0
 48
0.0
 49
0.0
140
0.0
141
0.0
142
1.0
143
0.8715953307
 70
   688
 72
     1
 73
     1
 74
     1
  7

 75
     0
147
1.1473214286
148
182.0
149
0.0001498477
100
AcDbLayout
  1
_Right
 70
     1
 71
     4
 10
0.0
 20
0.0
 11
0.0
 21
0.0
 12
0.0
 22
0.0
 32
0.0
 14
0.0
 24
0.0
 34
0.0
 15
0.0
 25
0.0
 35
0.0
146
0.0
 13
0.0
 23
0.0
 33
0.0
 16
1.0
 26
0.0
 36
0.0
 17
0.0
 27
1.0
 37
0.0
 76
     0
330
1A6
331
4F0
  0
LAYOUT
  5
2E0
102
{ACAD_REACTORS
330
1A
102
}
330
1A
100
AcDbPlotSettings
  1

  2
none_device
  4
ISO_A4_(210.00_x_297.00_MM)
  6

 40
7.5
 41
20.0
 42
7.5
 43
20.0
 44
210.0
 45
297.0
 46
0.0
 47
0.0
 48
0.0
 49
0.0
140
0.0
141
0.0
142
1.0
143
0.8715953307
 70
   688
 72
     1
 73
     1
 74
     1
  7

 75
     0
147
1.1473214286
148
182.0
149
0.0001498477
100
AcDbLayout
  1
_Trimetric
 70
     1
 71
     7
 10
0.0
 20
0.0
 11
0.0
 21
0.0
 12
0.0
 22
0.0
 32
0.0
 14
0.0
 24
0.0
 34
0.0
 15
0.0
 25
0.0
 35
0.0
146
0.0
 13
0.0
 23
0.0
 33
0.0
 16
1.0
 26
0.0
 36
0.0
 17
0.0
 27
1.0
 37
0.0
 76
     0
330
2DF
331
4F6
  0
LAYOUT
  5
459
102
{ACAD_REACTORS
330
1A
102
}
330
1A
100
AcDbPlotSettings
  1

  2
none_device
  4
ISO_A4_(210.00_x_297.00_MM)
  6

 40
7.5
 41
20.0
 42
7.5
 43
20.0
 44
210.0
 45
297.0
 46
0.0
 47
0.0
 48
0.0
 49
0.0
140
0.0
141
0.0
142
1.0
143
0.8715953307
 70
   688
 72
     1
 73
     1
 74
     1
  7

 75
     0
147
1.1473214286
148
182.0
149
0.0001498477
100
AcDbLayout
  1
ISO PERSP
 70
     1
 71
     9
 10
0.0
 20
0.0
 11
0.0
 21
0.0
 12
0.0
 22
0.0
 32
0.0
 14
0.0
 24
0.0
 34
0.0
 15
0.0
 25
0.0
 35
0.0
146
0.0
 13
0.0
 23
0.0
 33
0.0
 16
1.0
 26
0.0
 36
0.0
 17
0.0
 27
1.0
 37
0.0
 76
     0
330
458
331
4FA
  0
LAYOUT
  5
22
102
{ACAD_REACTORS
330
1A
102
}
330
1A
100
AcDbPlotSettings
  1

  2
none_device
  4
ANSI_A_(11.00_x_8.50_Inches)
  6

 40
6.35
 41
19.05
 42
6.35000508
 43
19.05000254
 44
279.4
 45
215.9
 46
219.78937246
 47
73.1556839979
 48
0.0
 49
0.0
140
0.0
141
0.0
142
0.0486160714
143
1.0
 70
  1696
 72
     0
 73
     0
 74
     0
  7

 75
     0
147
0.0179189148
148
-1300.4909072572
149
0.0
100
AcDbLayout
  1
Model
 70
     1
 71
     0
 10
0.0
 20
0.0
 11
420.0
 21
297.0
 12
0.0
 22
0.0
 32
0.0
 14
-182.0
 24
0.0
 34
0.0
 15
42.0
 25
25.5
 35
0.0
146
0.0
 13
0.0
 23
0.0
 33
0.0
 16
1.0
 26
0.0
 36
0.0
 17
0.0
 27
1.0
 37
0.0
 76
     0
330
1F
331
29
  0
MLINESTYLE
  5
18
102
{ACAD_REACTORS
330
17
102
}
330
17
100
AcDbMlineStyle
  2
Standard
 70
     0
  3

 62
   256
 51
90.0
 52
90.0
 71
     2
 49
0.5
 62
   256
  6
BYLAYER
 49
-0.5
 62
   256
  6
BYLAYER
  0
ACDBPLACEHOLDER
  5
F
102
{ACAD_REACTORS
330
E
102
}
330
E
  0
SCALE
  5
48
102
{ACAD_REACTORS
330
47
102
}
330
47
100
AcDbScale
 70
     0
300
1:1
140
1.0
141
1.0
290
     1
  0
SCALE
  5
49
102
{ACAD_REACTORS
330
47
102
}
330
47
100
AcDbScale
 70
     0
300
1:2
140
1.0
141
2.0
290
     0
  0
SCALE
  5
4A
102
{ACAD_REACTORS
330
47
102
}
330
47
100
AcDbScale
 70
     0
300
1:4
140
1.0
141
4.0
290
     0
  0
SCALE
  5
4B
102
{ACAD_REACTORS
330
47
102
}
330
47
100
AcDbScale
 70
     0
300
1:5
140
1.0
141
5.0
290
     0
  0
SCALE
  5
4C
102
{ACAD_REACTORS
330
47
102
}
330
47
100
AcDbScale
 70
     0
300
1:8
140
1.0
141
8.0
290
     0
  0
SCALE
  5
4D
102
{ACAD_REACTORS
330
47
102
}
330
47
100
AcDbScale
 70
     0
300
1:10
140
1.0
141
10.0
290
     0
  0
SCALE
  5
4E
102
{ACAD_REACTORS
330
47
102
}
330
47
100
AcDbScale
 70
     0
300
1:16
140
1.0
141
16.0
290
     0
  0
SCALE
  5
4F
102
{ACAD_REACTORS
330
47
102
}
330
47
100
AcDbScale
 70
     0
300
1:20
140
1.0
141
20.0
290
     0
  0
SCALE
  5
50
102
{ACAD_REACTORS
330
47
102
}
330
47
100
AcDbScale
 70
     0
300
1:30
140
1.0
141
30.0
290
     0
  0
SCALE
  5
51
102
{ACAD_REACTORS
330
47
102
}
330
47
100
AcDbScale
 70
     0
300
1:40
140
1.0
141
40.0
290
     0
  0
SCALE
  5
52
102
{ACAD_REACTORS
330
47
102
}
330
47
100
AcDbScale
 70
     0
300
1:50
140
1.0
141
50.0
290
     0
  0
SCALE
  5
53
102
{ACAD_REACTORS
330
47
102
}
330
47
100
AcDbScale
 70
     0
300
1:100
140
1.0
141
100.0
290
     0
  0
SCALE
  5
54
102
{ACAD_REACTORS
330
47
102
}
330
47
100
AcDbScale
 70
     0
300
2:1
140
2.0
141
1.0
290
     0
  0
SCALE
  5
55
102
{ACAD_REACTORS
330
47
102
}
330
47
100
AcDbScale
 70
     0
300
4:1
140
4.0
141
1.0
290
     0
  0
SCALE
  5
56
102
{ACAD_REACTORS
330
47
102
}
330
47
100
AcDbScale
 70
     0
300
8:1
140
8.0
141
1.0
290
     0
  0
SCALE
  5
57
102
{ACAD_REACTORS
330
47
102
}
330
47
100
AcDbScale
 70
     0
300
10:1
140
10.0
141
1.0
290
     0
  0
SCALE
  5
58
102
{ACAD_REACTORS
330
47
102
}
330
47
100
AcDbScale
 70
     0
300
100:1
140
100.0
141
1.0
290
     0
  0
SCALE
  5
59
102
{ACAD_REACTORS
330
47
102
}
330
47
100
AcDbScale
 70
     0
300
1/128" = 1'-0"
140
0.0078125
141
12.0
290
     0
  0
SCALE
  5
5A
102
{ACAD_REACTORS
330
47
102
}
330
47
100
AcDbScale
 70
     0
300
1/64" = 1'-0"
140
0.015625
141
12.0
290
     0
  0
SCALE
  5
5B
102
{ACAD_REACTORS
330
47
102
}
330
47
100
AcDbScale
 70
     0
300
1/32" = 1'-0"
140
0.03125
141
12.0
290
     0
  0
SCALE
  5
5C
102
{ACAD_REACTORS
330
47
102
}
330
47
100
AcDbScale
 70
     0
300
1/16" = 1'-0"
140
0.0625
141
12.0
290
     0
  0
SCALE
  5
5D
102
{ACAD_REACTORS
330
47
102
}
330
47
100
AcDbScale
 70
     0
300
3/32" = 1'-0"
140
0.09375
141
12.0
290
     0
  0
SCALE
  5
5E
102
{ACAD_REACTORS
330
47
102
}
330
47
100
AcDbScale
 70
     0
300
1/8" = 1'-0"
140
0.125
141
12.0
290
     0
  0
SCALE
  5
5F
102
{ACAD_REACTORS
330
47
102
}
330
47
100
AcDbScale
 70
     0
300
3/16" = 1'-0"
140
0.1875
141
12.0
290
     0
  0
SCALE
  5
60
102
{ACAD_REACTORS
330
47
102
}
330
47
100
AcDbScale
 70
     0
300
1/4" = 1'-0"
140
0.25
141
12.0
290
     0
  0
SCALE
  5
61
102
{ACAD_REACTORS
330
47
102
}
330
47
100
AcDbScale
 70
     0
300
3/8" = 1'-0"
140
0.375
141
12.0
290
     0
  0
SCALE
  5
62
102
{ACAD_REACTORS
330
47
102
}
330
47
100
AcDbScale
 70
     0
300
1/2" = 1'-0"
140
0.5
141
12.0
290
     0
  0
SCALE
  5
63
102
{ACAD_REACTORS
330
47
102
}
330
47
100
AcDbScale
 70
     0
300
3/4" = 1'-0"
140
0.75
141
12.0
290
     0
  0
SCALE
  5
64
102
{ACAD_REACTORS
330
47
102
}
330
47
100
AcDbScale
 70
     0
300
1" = 1'-0"
140
1.0
141
12.0
290
     0
  0
SCALE
  5
65
102
{ACAD_REACTORS
330
47
102
}
330
47
100
AcDbScale
 70
     0
300
1-1/2" = 1'-0"
140
1.5
141
12.0
290
     0
  0
SCALE
  5
66
102
{ACAD_REACTORS
330
47
102
}
330
47
100
AcDbScale
 70
     0
300
3" = 1'-0"
140
3.0
141
12.0
290
     0
  0
SCALE
  5
67
102
{ACAD_REACTORS
330
47
102
}
330
47
100
AcDbScale
 70
     0
300
6" = 1'-0"
140
6.0
141
12.0
290
     0
  0
SCALE
  5
68
102
{ACAD_REACTORS
330
47
102
}
330
47
100
AcDbScale
 70
     0
300
1'-0" = 1'-0"
140
12.0
141
12.0
290
     0
  0
ENDSEC
  0
EOF
